Que tipo de escala es esta?

urgok
#1 por urgok el 07/02/2011
hola que tal!

una pregunta en este video hay una escala que en vez de hacerla a lo ''ancho del mastil'' la hace a lo largo.


alguien sabe que escala es? gracias

Subir
Pasando pantalla
#2 por Pasando pantalla el 07/02/2011
Son 9:33 min. ¿En qué minuto toca esa escala?
Cuando dices tocar a lo ancho se le llama tocar en vertical, si es a lo largo siguiendo la cuerda se le llama tocar en horizontal y si va tocando todas las cuerdas y empieza en trastes graves y temina en trastes agudos, y viceversa, se le llama tocar en diagonal.
:saludo:
Subir
asphix
#3 por asphix el 07/02/2011
Pues asi sin ver el video, tan solo por el titulo menciona que es G mayor...
Subir
Pasando pantalla
#4 por Pasando pantalla el 07/02/2011
Bueno, me he tragado todo el vídeo y siempre está tocando la pentatónica mayor de SOL. Supongo que te referías al ejercicio del minuto 5:18.
Aunque supongo que no sabes inglés al principio del vídeo el tipo ya dice que es un solo de pentatónica en Gmay.
:saludo:
Subir
urgok
#5 por urgok el 07/02/2011
hola que tal!!

perdon nunca puse los minutos es en el 5:30.
gracias claudi por la aclaracion! :-)

a lo que me refiero se que esta en G mayor.pasa que no se que patron sigue en ese minuto!

perdon por mi mala expresion.

gracias a todos por responder!
Subir
Pasando pantalla
#6 por Pasando pantalla el 08/02/2011
El primer patrón correspondería a:
---------------------------5-7--
----------------------5-8-------
-----------------4-7------------
------------5-7-----------------
-------5-7----------------------
--5-7---------------------------
El segundo patrón sería
-------------------------------7-10--
------------------------8-10---------
-------------------7-9-(12)---------------
--------------7-9---------------------
-------7-10--------------------------
-7-10--------------------------------
Y el tercer patrón sería
-----------------------------------------12-15--
---------------------------------12-15----------
-------------------------12-14------------------
-----------------12-14--------------------------
---------12-14----------------------------------
-12-15------------------------------------------
Las notas en rojo son las del lick, y debes enlazar los patrones con slides.
Subir
urgok
#7 por urgok el 08/02/2011
MUCHAS GRACIAS CLAUDI!

era eso lo que me preguntaba...creo que hice mal la pregunta...no era escala si no patrones...te lo agradezco mucho!
Subir
Pasando pantalla
#8 por Pasando pantalla el 08/02/2011
De nada, amigo. :brindis:
Subir

Hilos similares

Respuesta rápida

Regístrate o para poder postear en este hilo