Manual Guitarrista y Escalas Completo

MiguelCt
#25 por MiguelCt el 13/04/2010
Muy buen aporte¡¡¡ sobre todo el de las escalas... ¡¡
Subir
jimmy's blues
#26 por jimmy's blues el 14/04/2010
Grcias compañero, molan...
Subir
williams madrid
#27 por williams madrid el 15/04/2010
ta muy bueno

gracias master
Subir
jose f.
#28 por jose f. el 18/04/2010
Muchisimas gracias por el post. Es la primera vez que escribo en el foro. Me resulta muy útil.

Un saludo
Subir
tukachador
#29 por tukachador el 18/04/2010
ola... alguien tiene los ejercicios. de los dedos....
antes habia encontrado algo como esto

-1-2-3-4-
en las seis cuerda.. ascendete y descendente... pos tambien habia con dedos intercalados... cosa q asi podias tener mayor control con los dedos... pos eso estoy buscando... no se si alguien tiene algun dato :S gracias
Subir
legolas622
#30 por legolas622 el 18/04/2010
Buen aporte Moffeta, gracias! :aplausos::saludo:
Subir
moffeta
#31 por moffeta el 19/04/2010
tukachador escribió:
ola... alguien tiene los ejercicios. de los dedos....
antes habia encontrado algo como esto

-1-2-3-4-
en las seis cuerda.. ascendete y descendente... pos tambien habia con dedos intercalados... cosa q asi podias tener mayor control con los dedos... pos eso estoy buscando... no se si alguien tiene algun dato :S gracias


Prueba esto (pua abajo-arriba):

Modo Sube-Baja:

( sube y baja ) Repite lo mismo mientras pasas de a un traste (sube y baja)
-1-2-3-4--4-3-2-1---2-3-4-5--3-4-5-6-------------------------------
-1-2-3-4--4-3-2-1---2-3-4-5--3-4-5-6-------------------------------
-1-2-3-4--4-3-2-1---2-3-4-5--3-4-5-6-------------------------------
-1-2-3-4--4-3-2-1---2-3-4-5--3-4-5-6---(y asi...)--------------------
-1-2-3-4--4-3-2-1---2-3-4-5--3-4-5-6------------------------------------
-1-2-3-4--4-3-2-1---2-3-4-5--3-4-5-6------------------------------------

Modo Traste-cuerda:

----------------------------8--9-10-11---------------------------------
-----------------------7-8-9-10--------12-13-14-15--------------------
--------------------4-5-6-7-----------------13-14-15-16---------------
---------------3-4-5-6--------------------------14-15-16-17-----------
----------2-3-4-5----------------------------------15-16-17-18--------
--1-2-3-4----------------------------------------------16-17-18-19-20-

Lo mismo haz para tres dedos (puedes seguir los mismos patrones sube-baja o cambiando de traste-cuerda como en 1234 anteriormente :
------------------6-8-9------------------------------------
--------------5-7-8-----(y desiende)-----------------------
----------4-6-7--------------------------------------------
-------3-5-6-----------------------------------------------
----2-4-5--------------------------------------------------
-1-3-4-----------------------------------------------------

--------------6-7-9----------------------------------------
-----------5-6-8----(y desiende)---------------------------
--------4-5-7----------------------------------------------
------3-4-6------------------------------------------------
---2-3-5---------------------------------------------------
-1-2-4-----------------------------------------------------

------------6-8-10------------------------------------------
----------5-7-9----(y desiende)-----------------------------
-------4-6-8------------------------------------------------
-----3-5-7--------------------------------------------------
---2-4-6----------------------------------------------------
-1-3-4------------------------------------------------------


Tambien hay una muy practica (puedes seguir los patrones del 1234):

------------------------------------------6---8-------------------
--------------------------------5---7---5---7-----------------------
-----------------------4---6--4---6-------------------------------
-------------3---5---3---5---------------------------------------
---2---4---2---4--------------------------------------------
-1---3----------------------------------------------------
d u d u d u d u (down - up)



Con esto tienes para divertirte un buen tiempo!!
Long life for METAL!!! :brindis:
---------------------------------
tukachador escribió:
ola... alguien tiene los ejercicios. de los dedos....
antes habia encontrado algo como esto

-1-2-3-4-
en las seis cuerda.. ascendete y descendente... pos tambien habia con dedos intercalados... cosa q asi podias tener mayor control con los dedos... pos eso estoy buscando... no se si alguien tiene algun dato :S gracias


ARRIBA TE DEJE LOS EJERCICIOS!!!! me olvide de citarte y comente en general!! jejejejej :brindis:
Subir
pablo.gm
#32 por pablo.gm el 19/04/2010
muchas gracias,esta de puta madre para mi y demas guitarristas sin dinero para pagar clases
Subir
tukachador
#33 por tukachador el 20/04/2010
moffeta escribió:
Prueba esto (pua abajo-arriba):

Modo Sube-Baja:

( sube y baja ) Repite lo mismo mientras pasas de a un traste (sube y baja)
-1-2-3-4--4-3-2-1---2-3-4-5--3-4-5-6-------------------------------
-1-2-3-4--4-3-2-1---2-3-4-5--3-4-5-6-------------------------------
-1-2-3-4--4-3-2-1---2-3-4-5--3-4-5-6-------------------------------
-1-2-3-4--4-3-2-1---2-3-4-5--3-4-5-6---(y asi...)--------------------
-1-2-3-4--4-3-2-1---2-3-4-5--3-4-5-6------------------------------------
-1-2-3-4--4-3-2-1---2-3-4-5--3-4-5-6------------------------------------

Modo Traste-cuerda:

----------------------------8--9-10-11---------------------------------
-----------------------7-8-9-10--------12-13-14-15--------------------
--------------------4-5-6-7-----------------13-14-15-16---------------
---------------3-4-5-6--------------------------14-15-16-17-----------
----------2-3-4-5----------------------------------15-16-17-18--------
--1-2-3-4----------------------------------------------16-17-18-19-20-

Lo mismo haz para tres dedos (puedes seguir los mismos patrones sube-baja o cambiando de traste-cuerda como en 1234 anteriormente :
------------------6-8-9------------------------------------
--------------5-7-8-----(y desiende)-----------------------
----------4-6-7--------------------------------------------
-------3-5-6-----------------------------------------------
----2-4-5--------------------------------------------------
-1-3-4-----------------------------------------------------

--------------6-7-9----------------------------------------
-----------5-6-8----(y desiende)---------------------------
--------4-5-7----------------------------------------------
------3-4-6------------------------------------------------
---2-3-5---------------------------------------------------
-1-2-4-----------------------------------------------------

------------6-8-10------------------------------------------
----------5-7-9----(y desiende)-----------------------------
-------4-6-8------------------------------------------------
-----3-5-7--------------------------------------------------
---2-4-6----------------------------------------------------
-1-3-4------------------------------------------------------


Tambien hay una muy practica (puedes seguir los patrones del 1234):

------------------------------------------6---8-------------------
--------------------------------5---7---5---7-----------------------
-----------------------4---6--4---6-------------------------------
-------------3---5---3---5---------------------------------------
---2---4---2---4--------------------------------------------
-1---3----------------------------------------------------
d u d u d u d u (down - up)



Con esto tienes para divertirte un buen tiempo!!
Long life for METAL!!! :brindis:
---------------------------------


ARRIBA TE DEJE LOS EJERCICIOS!!!! me olvide de citarte y comente en general!! jejejejej :brindis:



gracias man _:D
Subir
jimmy's blues
#34 por jimmy's blues el 20/04/2010
Joer, que bien, los dedos, me lo bajé pero copio y pego con tu permiso!!
Gracias moffeta
Subir
limon77
#35 por limon77 el 12/05/2010
Como estas , esta todo muy buena!! es teria basica bien explicada...
Lo que estoy buscando para aprender mas del metal es si tienen algun tipo
de progresiones, aparte de utilizar mucho acordes de 5º

Tambien en el metodo de formar melodias o puntear ..
Si tenes algo de eso te lo voy a agradecer!!

Saludos!!
Subir
monttino
#36 por monttino el 17/05/2010
Muchas gracias Moffeta, buen aporte para novatos como nosotros
Larga Vida el Rock!
Subir

Hilos similares

Respuesta rápida

Regístrate o para poder postear en este hilo