Fortalecer el dedo meñique.

  • 2
sompas
#13 por sompas el 08/02/2009
muchas gracias por esto
Subir
surt
#14 por surt el 19/03/2010
soelreaper escribió:
para fortalecer el dedo meñique yo hago ligados en el traste 12 con el meñique.
----0--12--0--12--0--12--0--12--0--12--0--12--0--12--0--12----
-----------------------------------------------------------------
-----------------------------------------------------------------
-----------------------------------------------------------------
-----------------------------------------------------------------
-----------------------------------------------------------------
o tambien:
--------------------------------------------1-2-3-4------------------
------------------------------------1-2-3-4---------1-2-3-4---------
---------------------------1-2-3-4---------------------------1-2-3-4
------------------1-2-3-4-------------------------------------------
---------1-2-3-4-----------------------------------------------------
-1-2-3-4-------------------------------------------------------------


son muy buenos esos, vale practicarlos, en especial el segundo, pues te da fuerza no solo en el meñique, sino es todos los dedos, util para tener mas habilidad:saludo::saludo:
Subir
beaustyle
#15 por beaustyle el 08/08/2012
#11 Yo tengo un problema, hago eso de poner la mano como rezando y separar los dedos, pero tengo una gran, gran dificultad en separar los dedos 3 y lo mismo cuando pongo mi mano sobre una mesa, me cuesta demasiado levantar el dedo 3, alguna sugerencia, porque mientras lo levanto, siente que lo hace muy poco y que no me beneficia en nada.
Subir
Hilos similares
Responder

Regístrate o para poder postear en este hilo