Escala para improvisar rock pesado??

jngcsk
#1 por jngcsk el 11/08/2009
ola, llevo 3 años tocando la guitarra y siempre me gusto el blues jazz y esas cosas.. pero ahora descubri el rock pesado y forme una banda de este genero... me pueden decir escalas de rock pesado??
Porq la pentatonica es muy blusera y la armonica muy clasica...

algo estilo slash, wylde, young etc etc... gracias...
Subir
davdragon
#2 por davdragon el 11/08/2009
Podrias probar las escalas exoticas que usa mucho mustaine
Subir
s.t.king v
#3 por s.t.king v el 11/08/2009
prueba la escala melodica menor.... slash la usa bastante en el album use your illusion I
Subir
jngcsk
#4 por jngcsk el 11/08/2009
oye! me das la tab de esa escala!??
Subir
morzillo
#5 por morzillo el 11/08/2009
wylde es pentatonica pura pero con pastillas activas :)
Subir
s.t.king v
#6 por s.t.king v el 11/08/2009
aqui te dejo la menor melodica de mi

Escala Melódica Menor de Mi
E – F♯ – G – A – B – C♯ – D♯ – E

E ----------------------------------------------------------------------11----12-
B ----------------------------------------------------------12----14-12----14----
G ----------------------------------------11----12-11-14-12----14----------------
D ----------------------11----13-11-14-13----14----------------------------------
A ----------12----14-12----14----------------------------------------------------
E -12-15-14----15----------------------------------------------------------------

E -12----11----------------------------------------------------------------------
B ----14----12-14----12----------------------------------------------------------
G ----------------14----12-14-11-12----11----------------------------------------
D ----------------------------------14----13-14-11-13----11----------------------
A ----------------------------------------------------14----12-14----12----------
E ----------------------------------------------------------------15----14-15-12-
Subir
Respuesta rápida

Regístrate o para poder postear en este hilo