Slash y sus pentatónicas, etc...

  • 2
#13 por arcona el 30/10/2008
Jackman escribió:
Tampoco creo que pase nada porque alguien recomiende a un guitarrista conseguir un profesor y estudiar, otros tantos guitarristas que tu también conoces y probablemente admiras (Satriani, Vai, Kirk Hammet) tienen talento y estudiaron con profesor (Como bien sabrás el primero fue uno de los profesores de los otros dos...)
Un saludo.


Pues por lo que parece uno aprovechó el tiempo mejor que el otro :D

Creo que es muy importante, si quieres hacer algo serio tener un profesor, por lo menos al principio, por que es dificil saber que hay que estudiar y como estudiarlo.

Por otra parte, esta el foro, que a mi me viene muy bien para ir pillando ideas e inquietudes.

A mi me viene muy bien conjugar las dos fuentes de información.

Un Saludo.
Subir
#14 por I.S.T.I.K.I.S. el 31/12/2008
los vincilos ya no estan disponibles alguien los tendria por ahi???

gracias
Subir
#15 por Cheky el 12/03/2009
...noto una tensión no muy estimulante....:ok:
Subir
#16 por Manuel_Baez el 12/03/2009
Cheky escribió:
...noto una tensión no muy estimulante....:ok:


La tensión que notas tiene un año apróximadamente, mira las fechas de los mensajes con "tensión poco estimulante" :leyendo:
Es normal que haya discusiones en un foro, y si buscamos las que tienen años o meses pues ni te digo xDDD
Subir
#17 por killerculero el 12/03/2009
la escala q mas usa es pentatonica en Mi (E)

-------------------------------------------------12-15---
-----------------------------------------12-15----------
-------------------------------12-14-------------------
----------------------12-14--------------------------------
------------12-14-----------------------------------
-12-15-------------------------------------------------



por ejemlpo para sweet child con una variacion en la primera cuerda usa 14 lo demas es igual

--------------------15-------14-----------------------
-----15--------------------------------------------
---------14---12--------14-------14-------------------
-12------------------------------------------------
------------------------------------------------
--------------------------------------------------
Subir
#18 por migue21 el 24/03/2009
alguien tiene las escalas y las partituras? resulta que la página ha caducado
Subir
Baneado
#19 por lewis gunner el 16/06/2010
tambien le pega muchisimo a las escalas de blues no os olvideis
Subir
Respuesta rápida

Regístrate o para poder postear en este hilo