Ejercicio Sweep picking

shredguitar_metal
#1 por shredguitar_metal el 08/06/2008
Pos nada, que aquí dejo un ejercicio que me he preparado esta tarde para hacer un poco de sweep picking a 6 cuerdas sobre la parte del solo de Mr. Crowley de Ozzy Osbourne. No es nada del otro mundo, pero lo dejo aquí para que lo use quien quiera :)
Un saludo :brindis:
Subir
canislupus
#2 por canislupus el 09/06/2008
Yo ya me lo he bajado, voy a practicarlo.

Muchas gracias.
Subir
shredguitar_metal
#3 por shredguitar_metal el 09/06/2008
No hay de que CANISLUPUS :brindis:
Subir
shredguitar_metal
#4 por shredguitar_metal el 10/06/2008
Vuelvo a dejar el ejercicio con una pequeña variación en la parte de los arpegios disminuidos, ya que así creo que es más fácil de tocarlo.
Lo siento por los que ya se han descargado el anterior, pero es que me parecía un poco rara esa parte. Un saludo :brindis:
Subir
jianqexkan
#5 por jianqexkan el 12/06/2008
esta no es una respuesta...
en realidad es otra pregunta
kisierasaber como hacer la tecnica que usa Dire Straits en su solo final... se que lo hace con los dedos no kiero hacerlo asi aunke a mi se me hace complicado hacerlo con la Pua... se que tiene un nombre... kisiera saber hacia donde muevo la Pua para "economizar" como dicen... kisiera saber ese pekeño nombre... un ejemplo de lo que digo es algo asi

--13-10----13-10----13-10----13-10-------
--------10-------10--------10-------10----
-------------------------------------------
-------------------------------------------
-------------------------------------------
-------------------------------------------
Subir
slash11
#6 por slash11 el 19/07/2008
Jianqexkan creo que a lo que te refieres es al economy picking, y en la tablatura que pusiste se tocaría asi:
downstroke upstroke upstroke
---13----------10--------------
--------------------------10---
-------------------------------
-------------------------------
-------------------------------
-------------------------------
Donde donwstroke es tocar con la púa hacia abajo y upstroke tocar con la púa hacia arriba.
Saludos :saludo:
Subir
Hilos similares
Responder
El topic está cerrado y no se admiten respuestas