Mi dedo 3 tiene poca fuerza !

Andruten
#13 por Andruten el 31/07/2007
Como bien han dicho, haz escalas y arpegios utilizando lo más posible el anular, en seguida ganarás fuerza :). A mi me pasó lo mismo con el meñique, era un dedo inservible, hasta que un día...^^.

Un saludo :D!
Subir
don lucero
#14 por don lucero el 31/07/2007
Buenos consejos ! , estoy precticando muchas escalas tratando de usarlo un poco más será cuestión de practicar aunque llevo muchos años de práctica y nunca alcanzo la agilidad de los otros dedos , capaz que vino fallado de fabrica jeje
Subir
Andrés_Gándara
#15 por Andrés_Gándara el 31/07/2007
no necesitas usar pesas ni nada... nunca los he usado, y tal vez en realidad si ayuden y demás, pero valiéndote de tu guitarra y tus dedos tienes para desarrollar fuerza y velocidad. Lo único que tienes que hacer es practicar arpegios que incluyan al dedo anular (ojo, que el meñique no se usa, sólo algunos puristas del flamenco para hacer remates lo usan) un buen ejercicio sería ...
(repetir 2 veces cada uno)
1
----------------------------------------
----------------------------------------
---------------------1------------------
------------0-----------------0---------
--------2--------2-------2 -------2-----
---0------------------------------------

---p----i---m----i----a---i----m---i

2
---------------------------------
---------------------------------
------------------0--------------
---------0-----------------0-----
-----2-------2--------2--------2-
-1--------------------------------

misma digitación

3

----------------------------------
---------------2------------------
--------0-------------- 0---------
-----2-----2-------2---------2---
--0-------------------------------
----------------------------------

4

------------------------------------
-------------------1----------------
-----------0---------------0--------
-------2-------2-------2-------2---
---1--------------------------------
------------------------------------

5

--------------------2---------------
-------------1---------------1------
---------2------2--------2-------2-
---0--------------------------------
------------------------------------
------------------------------------


6


-----------------------1--------------
--------------1-----------------1-----
---------2---------2--------2-------2-
----1----------------------------------
---------------------------------------
---------------------------------------


uffff espero que alguien lo haga, me pasé toda la mañana haciéndolo :D


explicación: la idea es hacer todos los arpegios ( 1,2,3,4,5,6) seguidos, a una velocidad lenta, y tratar de darle un pequeño acento a la tercera del acorde (en este caso todas las da el anular, esa es la idea) y cada vez que vuelvas a empezar darle un poco más de velocidad y tratar de nunca perder la nota de el anular.
si no me entendiste pregúntame caon :cool:
P.D: ese ejercicio suena bien chido :ok:
P.D: en el último, tienes que hacer una cejilla hasta la cuarta cuerda.
P.D: intenta ejercicios como éste hasta que seas más hábil antes de empezar con el trémolo.
Subir
Andrés_Gándara
#16 por Andrés_Gándara el 31/07/2007
Una última aclaración, al estudiarlos todos seguidos el orden debería quedar así:
1,1,2,2,1,1,2,2,3,3,4,4,3,3,4,4,5,5,6,6,5,5,6,6 -vuelve a empezar
Subir
joel
#17 por joel el 01/08/2007
cortatelo!!!!!!!!!!!!!!!!!!!!!!!!!!!!!!!!!!!!!!!!!!!!!!
Subir
joel
#18 por joel el 01/08/2007
no es cierto

practica los ejercicios de arriba y veras que te va mejor
Subir
JmFernandez
#19 por JmFernandez el 01/08/2007
joel escribió:
cortatelo!!!!!!!!!!!!!!!!!!!!!!!!!!!!!!!!!!!!!!!!!!!!!!

Seras "JEBI" :evil::evil::evil:
Subir
jrgarciav
#20 por jrgarciav el 01/08/2007
hola rese, al principio pensaba que te referias al dedo 3 (anular de la mano izquierda) luego pude aclarar que era el dedo anular de la mano derecha, para ello existen muy buenos estudios de musica clasica entre los cuales te puedo recomendar el estudio Nº 01 de hector villalobos o el NºVI de Leo Brower, otra opcion aparte de las que ya te han dado los expertos compañeros del foro podria ser estudiar las escalas con las digitaciones indice medio, medio anular, indice anular y eso te podria ayudar bastante!

quizas ya muy tarde pero espero te sea de ayuda,

Saludos!
Subir
don lucero
#21 por don lucero el 02/08/2007
Muchas Gracias a todos por sus palabras realmente muy útiles y agradecido
Subir
don lucero
#22 por don lucero el 01/09/2007
Al final no era un tema de fuerza en mi caso.

Les digo

Era un problema de uñas , nunca me dejaba crecer las uñas mucho en ese dedo y ahora que las cuido y le doy una forma màs redondeada cambiò totalmente el ataque a las cuerdas.

Mil gracias por los consejos de todas formas !
Subir
Jorge Rubiales
#23 por Jorge Rubiales el 10/09/2007
Jeejej el tema de las uñas hay que cuidarlo mucho. Voy a dar mi briconsejo de todas formas xDD

En mi epoca lo que hacia era practicar las escalas de toda la vida, pero usando el anular y meñique, medio y meñique, indice y anular, etc. Para acostumbrarme a que todos los dedos tuvieran la misma velocidad. Esto es bastante dificil, pero al menos se aproxima la velocidad de unos dedos a otros. Si hay problemas con uno, pues trabajamos mas escalas con ese dedo y otro, y punto ;)
Subir
don lucero
#24 por don lucero el 14/09/2007
Excacto , yo hago algo parecido pero antes no era tan obsesivo con el tema uñas y ahora me las limo seguido pa redondearlas viò.
Subir
Hilos similares
Responder

Regístrate o para poder postear en este hilo