¿Ubicar y crear arpegios de sweep picking con base en acordes?

Víctor Hdz Hdz
#1 por Víctor Hdz Hdz el 09/01/2019
Hace unos días me empecé a ver nuevas técnicas exóticas,y vi la técnica de tocar un arpegio de sweep picking con tapping (específicamente este vídeo: https://www.youtube.com/watch?v=ioUYQeiGZ9U),y mi primera duda surgió cuando a chica explica que usa tres acordes,de entre ellos un Re menor y luego toca ese mismo acorde pero en forma de arpegio menor 7ma ,mi pregunta es ¿Como es que se crean esos arpegios,como se ubican? y si es que hay mas posiciones movibles para esos acordes y como los puedo crear/encontrar
Se que es algo complicado,pero les agradecería mucho si me resolvieran mi pregunta :D
Subir
Miguel Martinez
#2 por Miguel Martinez el 09/01/2019
Hola, para eso necesitas aprender a construir acordes, acá te dejo un link para que aprendas a hacerlo:
Subir
Víctor Hdz Hdz
#3 por Víctor Hdz Hdz el 09/01/2019
Hola!
Gracias por contestar y por la ayuda, ya entendí como construir los acordes,mi problemas es que no se como ubicar o construir el arpegio de forma correcta
Subir
Felipe Guitar
#4 por Felipe Guitar el 12/01/2019
Hola Victor,
Para lograr lo que quieres hay que tener sumamente claros algunos elementos:

1. Las notas en el mástil de la guitarra
2. Los intervalos
3. Las nomenclaturas de los acordes

Una vez teniendo claro todo esto debes buscar la posición en la guitarra que mas te acomode a ti, no existen formulas perfectas, todo va a depender del contexto en que se desarrolle determinado arpegio y de tu propia técnica que hayas desarrollado.

Por ejemplo para un arpegio de Am7 podrías ocupar 2 formulas:

1.una técnica mixta entre sweep picking, slide y tapping:

H T P P
-----------------------12-15-17-15-12-------------------------
----------sl.-------13--------------------13------sl.-------------
---------9 \ 12-14--------------------------14-12 \ 9----------
----10--------------------------------------------------10-------
-12--------------------------------------------------------12----
-------------------------------------------------------------------

2. Una técnica mixta entre alternate picking y sweep picking

--------------------------12-15-17-15-12-------------------------------
----------------------13----------------------13---------------------------
--------------12-14------------------------------14-12------------------
----------14-----------------------------------------------14--------------
--12-15-------------------------------------------------------15-12-----
------------------------------------------------------------------------------

Ambas formulas tocan las mismas notas, pero va a depender del guitarrista ocupar la técnica que mas ha desarrollado, si ha trabajado una técnica con harto ligado, entonces es mejor inclinarse por la primera opción, pero si se ha trabajado mas el uñeteo, la segunda es una mejor opción.

Desde mi experiencia no existen formulas perfectas, sino que cada uno debe encontrar la que mejor se adapte.

Espero te sirva mi respuesta, y si te interesa te invito a revisar este video Tab, en donde aparecen varios arpegios tocados con sweep picking y ligados, es del tema "Eugene´s Trick bag" de Steve Vai.

Saludos!

Subir
Hilos similares
Respuesta rápida

Regístrate o para poder postear en este hilo