Ejercicios: Barridos y arpegios

dellun
#1 por dellun el 05/04/2008
Bueno, aquí mi primera aportación a este foro que me parece magnífico.

Barridos:

1-Posición Mayor

1--------5-8-8-5----
2------6---------6---
3----5-------------5-

2-Posición mayor. Practicando de manera ascendente:

1-------5-8-----7-10--------10-13--------12-15-
2-----6-------8----------11------------13-------
3---5-------7---------10------------12----------

3.".Pracitando de manera descendente:

1---8-5-----10-7------13-10-------15-12-------
2-------6---------8----------11----------13----
3---------5---------7-----------10----------12-

4.Combinar Ascendente y descende y descendente y ascendente.


Arpegios:

1.Arpegios Mayores


--------------5-9-9-5-------------
------------5---------5-----------
----------6-------------6---------
--------7-----------------7-------
----4-7---------------------7-4---
--5-----------------------------5-

--------------5-9-9-5-------------
----------------------------------
----------6-9---------9-6---------
--------7-----------------7-------
------7---------------------7-----
--5-9-------------------------9-5-

------------9-12-12-9------------------------------12-16-
---------10------------10-----------------------14--------
-------9------------------9------------------14-----------
----11----------------------11-----------14--------------
-12----------------------------12-12-16------------------
-----------------------------------------------------------

Para practicar poder hacer idas y vueltas para no ser tan monótonos.


2.Arpegios Menores:

------------8-12-12-8-------------------------12-17-17-12--------------
---------10-----------10--------------------13------------13------------
-------9-----------------9----------------14-----------------14---------
----10---------------------10----------14----------------------14-------
-12---------------------------12-12-15---------------------------15-12-
-------------------------------------------------------------------------


Bueno eso es todo, espero que les sirva lo suficiente para ganar alguna cosilla!!!! Un saludín a todos!!!
Subir
1
angakok
#2 por angakok el 04/08/2008
No está mal para principiantes,esto es lo que busca mucha gente!
Subir
barbajoe
#3 por barbajoe el 08/09/2008
Muy bueno esto, es justamente lo que ando necesitando :D. Siempre los sweeps fueron mi dolor de cabeza, pero bueno, me han dicho que los practique lo más lento que pueda, veremos que pasa.
Subir
Alejandro Abellán
#4 por Alejandro Abellán el 08/09/2008
Ya conocía estos ejercicios, pero igualmente, gracias por este genial aporte. A ver si me pongo yo también a darle a los sweeps que es en lo que más fallo :oops:
Subir
Juanmi91
#5 por Juanmi91 el 08/09/2008
Bueno pues si Dellun me lo permite, me he tomado la pequeña molestia de pasarlo a tablatura para que así la gente lo pueda descargar y le sea más cómodo.

Si es demasiado rápido podéis bajar la velocidad para practicar.

:saludo:
Subir
Magio420
#6 por Magio420 el 08/09/2008
todo :aplausos:lo que sean ejercicios se agradesen chau....

Juanmi91 si señor mucho mas comodo mil gracias
Subir
nebiros
#7 por nebiros el 19/09/2008
excelente, solo canciones repaso, es hora de comenzar con tecnicas jeje,....:brindis:
Subir
redfines
#8 por redfines el 19/09/2008
muchas gracias, te dare tu primer +1 para que te motives a seguir posteando ayuda para los mas nuevos en el mundo este ;)
Subir
victorzoo
#9 por victorzoo el 21/10/2008
muchas gracias por el aporte
Subir
gorka77
#10 por gorka77 el 10/11/2008
Gracias por el aporte! :aplausos:
Subir
benlly123
#11 por benlly123 el 17/11/2008
pucha ami no me salen ...la pua se me va para el lado y se me mete entra las cuerdas
Subir
razhiel12
#12 por razhiel12 el 29/11/2008
se agradece esto me sirve XD
Subir

Hilos similares

Respuesta rápida

Regístrate o para poder postear en este hilo