Ayuda: movimiento de pua en sweep picking

aldosivicopa
#1 por aldosivicopa el 19/04/2009
hola gente, apelo a la ayuda de algun buen usuario que me devele una duda con el movimiento de pua en un barrido.

e|-1713------131713-1512------121512-1310------101310-1713------131713--|
B|-----15--15-----------14--14-----------10--10-----------15--15--------|
G|-------14---------------15---------------10---------------14----------|
D|----------------------------------------------------------------------|
A|----------------------------------------------------------------------|
E|----------------------------------------------------------------------|

en esta secuencia el movimiento que hago con la pua al arrancar en el traste 17 es ascendente es decir pua arriba con la 1º y 2º cuerda y con la 3º cuerda pua abajo hasta la 1º en el traste 13 y luego al ligar el traste 17 con el 13 nuevamente pua arriba, esta bien que lo haga asi ?
resumiendolo: el movimiento de pua con una triada es; si arracamos de la 1º cuerda 2 para arriba y 3 para abajo ?
ya que me resulta un poco incomodo o no se si deberia cambiar al tocar el arpegio que arranca con:

----------13-10--------------------------
------------- 10------------------------
---------------10------------------------ con este ejemplo tambien hago los mismos movimientos de pua es decir arriba arriba y 3 para abajo ? el metodo de pua en el barrido con 3 cuerdas es el mismo en todas las secuencias ??

desde ya gracias a quien me pueda responder.

ya se q puedo tocar los barridos como quiera, pueda, pero me gustaria saber si el movimiento de pua q estoy llevando a cabo es el tecnicamente correcto.

adios :saludo:
Subir
leviatan_soul999
#2 por leviatan_soul999 el 20/04/2009
Exclusivo para principiantes en el sweep:
La calidad y el tipo de disto no es lo que se dice decente pero seguro te sirve..


suerte:brindis:
Subir
aldosivicopa
#3 por aldosivicopa el 20/04/2009
gracias x el video, pero... me podrias responder las dudas q planteo ;) ya q parece q sabes del tema.
en las triadas el movimiento de pua de 1º y 2º cuerda es arriba arriba y al llegar a la 3º cuerda para abajo hasta llegar a la 1º cuerda , barriendo las 3 cuerdas ? solo quisiera saber eso.

adio :ok:
Subir
leviatan_soul999
#4 por leviatan_soul999 el 20/04/2009
ok.. Quedaria asi:

v p.o v v
----------13-----10--------------------------
------------- ------10------------------------
----------------------10------------------------

v=hacia arriba
p.o= Pull of

Queda igual para el primero que escribiste....
Lo del pull of es para economizar un movimiento y que se lo puedas hacer un poco mas rapido y comodo...
Saludos:brindis:
Subir
Hilos similares
Responder

Regístrate o para poder postear en este hilo