Always on the Run - Lección de guitarra

#1 por KLEIST el 27/09/2008
Aquí os pongo un vídeo que he hecho. Es el segundo que hago tocando la guitarra:). Son solo los riffs principales, el sólo a lo mejor más adelante :D.



Y aquí la tab:

Riff de Slash:

|------------------------|----------------------------|
|------------------------|----------------------------|
|------------------------|----------------------------|
|----------------5p0-----|------------------------0h2-|
|---7-5p4---5----------7-|---7-5p4---5--5-5p2---------|
|-0-------0----0-----0---|-0-------0----------3p0-----|
----------PM---PM----PM------------PM------------------

Riff de Lenny:

|--------------------|-----------------11/12-12-12-|
|--------------------|-----------------11/12-12-12-|
|---------X---X------|-X-X---------X-X-11/12-12-12-|
|-5-7-----X-5-X------|-X-X-5-7-----X-X-------------|
|-----5-7--------5p7-|---------5-7-----------------|
|--------------------|-----------------------------|

p = pull off
h = hammer on
/ = slide
PM = Palm Mute
X = Muted Note /Nota Muteada
Subir
#2 por KLEIST el 29/09/2008
Acabo de hacer un segundo vídeo sobre la mano derecha.



Ya sé que no es necesario, pero me apetecia hacerlo.
Subir
Respuesta rápida

Regístrate o para poder postear en este hilo