Sweep Picking

criogenic
#37 por criogenic el 05/01/2008
smuy bueno este post,estoy pillando mucha informacion.
Subir
jessicasilva
#38 por jessicasilva el 04/07/2009
Mr_KoRn3 escribió:
D d d U D U u u
-------12-15-17-12-------
----13--------------13--- D = Downstroke
-12--------------------12 d = Continuacion del downstroke
-------------------------- U = Upstroke
-------------------------- u = Continuacion del upstroke
--------------------------

Hay teneis uno muy simple.


Justo lo que se necesitaba, un ejercicio de sweep sencillo para empesar...
Ya tengo 25 mins seguidos de hacerlo :|, aumentando la velocidad hasta llegar a 230beats, jajaja ya me canse de la mano derecha :oops:
Gracias ;)
Subir
bigote94
#39 por bigote94 el 04/07/2009
ay... recurdo aquel dia que hice un sweep picking perfecto y jamas me a vuelto a salir
lo peor es que lo hice por hacer xDD
Subir
edgar_rg Baneado
#40 por edgar_rg el 04/07/2009
Este es de la cancion de MAB de no boundaries creo xD el intro me gusta mucho como suena:
-----------------------------13-17-
--------------------------14------
----------------------15----------
------------------14--------------
--------------15------------------
----12---17-----------------------

Salu2
jessicasilva escribió:
Justo lo que se necesitaba, un ejercicio de sweep sencillo para empesar...
Ya tengo 25 mins seguidos de hacerlo :|, aumentando la velocidad hasta llegar a 230beats, jajaja ya me canse de la mano derecha :oops:
Gracias ;)

Jesica xD cuidado no se te vaya a lastimar la mano jajaja xD ademas no se mejora en cosa de un dia tarda meses para que salga bien, tambien practica otras cosas de sweep :P
Subir
emmanuel alejand
#41 por emmanuel alejand el 01/03/2010
hey diran que estoy muy pendejo pero ni pedo kiero aprender
jeje ps no se leer estas cosas
----------------------------10--15--10------------------------
------------------------12--------------12--------------------------
---------------------12---------------------12-------------------
-----------------12-----------------------------12------------
-------------14-------------------------------------14-------
---------15---------------------------------------------15---

alguien me las puede explicar?
Subir
Miguelanxo
#42 por Miguelanxo el 07/10/2019
#1 «el sweep picking es una técnica inventada por Frank Gambale»

En castellano se denomina «barrido», y como técnica de guitarra la tienes desde hace siglos y escrita en música ya desde el siglo XVIII.
Subir
Guitar Arena
#43 por Guitar Arena el 22/10/2019
Aquí os dejamos un vídeo de nuestro canal, esperamos os sirva de ayuda.

Subir
Hilos similares
Responder

Regístrate o para poder postear en este hilo