Ejercicios palm mute con quintas

#1 por deathmaster el 31/05/2011
He estado buscando pero no he encontrado ningún ejercicio de palm mute CON QUINTAS.

Algu´n forero majo podría pasarme alguno?
Subir
#2 por kramerjack el 31/05/2011
Buenas como vá,
Mirá en el Rock Discipline de Jhon Petrucci tenés muchos ejercicios de Alternate picking, esos ejerciocios yo los he usado para practicarlos con Palm Muting.
Aca esta el link en Amazon como para verlo.

También en youtube podés encontrar varios videos en los que te explica esta técnica. Como toda técnica requiere mucha práctica y depuración para poder dominarla. También las tenés que ir introduciendo en tu forma habitual de tocar como para empezar a armar vocabulario.
Otro libro muy interesante para ver es el de Peter Fisher - Rock Guitar Secrets


Cualquier cosa avisame y te ayudo en lo que pueda.
Saludos
Subir
#3 por juliosalvatierra el 31/05/2011
Los acordes de quinta son acordes normales solo que utilizando la 3 cuerdas mas graves de cada acorde.

Ejemplo:

El mi quinto (E5) sería algo así:

e----------
b----------
g----------
d---2------
a---2------
e---0------

El la quinto (A5) sería así:

e----------
b----------
g---2------
d---2------
a---0------
e----------

Practica con esto:

e----------------|---------------|----------------|-------------
b----------------|---------------|----------------|-------------
g----------------|---------------|----------------|-------------
d---22222222--|--66666666--|--99999999--|--99999999--
a---22222222--|--66666666--|--99999999--|--99999999--
e---00000000--|--44444444--|--77777777--|--77777777--


e----------------|---------------|----------------|-------------
b----------------|---------------|----------------|-------------
g----------------|---------------|--66666666---|--66666666--
d---22222222--|--66666666--|--66666666--|--66666666--
a---22222222--|--66666666--|--44444444--|--44444444--
e---00000000--|--44444444--|---------------|--------------


e----------------|---------------|----------------|-------------
b----------------|---------------|----------------|-------------
g----------------|---------------|--77777777---|--77777777--
d---44444444--|--66666666--|--77777777--|--77777777--
a---44444444--|--66666666--|--55555555--|--55555555--
e---22222222--|--44444444--|---------------|--------------


e----------------|--5--
b----------------|--5--
g----------------|--6--
d---77777777--|--7--
a---77777777--|--7--
e---55555555--|--5--
Subir
#4 por saiyiya el 06/06/2011
Yo tenía una duda similar, sé los conceptos pero no he encontrado ejercicios muy sencillos para comenzar.
Te agradezco que cuelgues eso pero tengo una duda, tocando esos acordes de quintas ¿tienes que mutear el resto de las cuerdas o sólo golpeas la púa en esas tres cuerdas?
Subir
#5 por juliosalvatierra el 07/06/2011
Coloca la mano derecha (la de la púa) sobre lo ultimo de las cuerdas y el puente, y tocas con la mano apoyada en las cuerdas. Puedes tocar las tres cuerdas del acorde, de todas formas si tocas una demás, no va a sonar mucho la diferencia.

A practicar. :aplausos:
Subir
Respuesta rápida

Regístrate o para poder postear en este hilo