Libreria de licks

josep
#1 por josep el 28/12/2007
Hace ya unos dias, que algunos compañeros del foro y yo nos escribimos sobre este tema.

Me parece muy interesante la idea, entre todos podriamos aportar muchisimos licks o fraseos de diferentes estilos, que tambien se podrian completar con audios o videos.

Podriamos conseguir una fuente casi inagotable de recursos para los solos y sobre ellos aplicar todas la variaciones que nos vengan a la mente.

Creo que seria una muy buena idea.

Me gustaria saber que os parece a vosotros.

Un abrazo
---------------------------------
Licks usando la escala Pentatónica



Este lick es muy usado para tocar rock.


E||--------------------------------------------------|
B||--------------------------------------------------|
G||-----------------------------------------------12-|
D||-----------------------------12----12-14-12-14----|
A||-----------12----12-14-12-14----14----------------|
E||--15-12-15----15----------------------------------|

-----------------------------------12----12-15-12-|--15----------------||
-----------------12----12-15-12-15----15----------|--------------------||
-----12-14-12-14----14----------------------------|--------------------||
--14----------------------------------------------|--------------------||
--------------------------------------------------|--------------------||
--------------------------------------------------|--------------------||



Este tipo de licks es usado tanto por guitarristas como Kirk Hammett hasta Yngwie Malmsteen

E||--17p12-15p12----12-17p12-15p12----12-17p12-15p12-------15p12-------------|
B||--------------12----------------12----------------12p15-------15p12-15p12-|
G||--------------------------------------------------------------------------|
D||--------------------------------------------------------------------------|
A||--------------------------------------------------------------------------|
E||--------------------------------------------------------------------------|

--------------------||
--------------------||
--14b---------------||
--------------------||
--------------------||
--------------------||




Lick muy bluesero pero tambien muy usado en el rock

E||--12------------12------------12------------12------------||
B||-----15p12---------15p12---------15p12---------15p12------||
G||-----------14b-----------14b-----------14b-----------14b--||
D||----------------------------------------------------------||
A||----------------------------------------------------------||
E||----------------------------------------------------------||


Extraido de: Web hosting, domain names and web design services by FortuneCity

62ae0da1ab3af9f8daad1025ee4ee-82835.gif
Subir
KikeAOR
#2 por KikeAOR el 30/12/2007
Apoyo 100% la propuesta :D Y me da pena que no se obtenga ningun tipo de respuesta a este tema, y que de otras tantas chorradas y preguntas absurdas en el foro se haga tanto eco la gente, siendo cosas que no van a parar a ningun lado :D

A ver si esta vez tiene mas exito que cuando lo propuse yo hace un tiempo!!

Animo a todos!!! :D
---------------------------------
Bueno Josep, creo que nos vamos a tener que ir dando por vencidos........... que aqui ya parece definitivamente que no interesa.............

A la gente parece que le gusta mas hablar sobre la edad que tenemos (lo pone en nuestros datos ya), sobre quien aguanta peor las criticas del foro, sobre que guitarrista es el mejor del mundo y sobre a que velocidad toca cada uno del foro ;)

Parece que de estas cosas todos podemos ayudarnos y aprender mas sobre guitarra que intentando crear entre todos una gran base de datos con todo tipo de recursos ritmicos y solistas......

En fin, una pena :) FELIZ AÑO A TODOS!!!
Subir
oscar_metal_13
#3 por oscar_metal_13 el 30/12/2007
a mi me gustaria aportar algo ...

pero no tengo nada que aportar

de todas formas gracias por la propuesta i esos licks

a ver si esto va para arriba

FELIZ AÑO
Subir
sondraco
#4 por sondraco el 30/12/2007
Bueno aqui les dejo esta página Guitar Licks - The Collection of the "Daily Licks" que contiene 320 licks. Cada uno tiene su archivo MIDI y su tablatura. Espero les sirva.

Algunos ejemplos:

Imagen no disponible


Imagen no disponible


Imagen no disponible


Imagen no disponible


Imagen no disponible


Saludos. :saludo: :saludo:
Subir
josep
#5 por josep el 31/12/2007
in_flames1703 escribió:
Apoyo 100% la propuesta :D Y me da pena que no se obtenga ningun tipo de respuesta a este tema, y que de otras tantas chorradas y preguntas absurdas en el foro se haga tanto eco la gente, siendo cosas que no van a parar a ningun lado :D

A ver si esta vez tiene mas exito que cuando lo propuse yo hace un tiempo!!

Animo a todos!!! :D
---------------------------------
Bueno Josep, creo que nos vamos a tener que ir dando por vencidos........... que aqui ya parece definitivamente que no interesa.............

A la gente parece que le gusta mas hablar sobre la edad que tenemos (lo pone en nuestros datos ya), sobre quien aguanta peor las criticas del foro, sobre que guitarrista es el mejor del mundo y sobre a que velocidad toca cada uno del foro ;)

Parece que de estas cosas todos podemos ayudarnos y aprender mas sobre guitarra que intentando crear entre todos una gran base de datos con todo tipo de recursos ritmicos y solistas......

En fin, una pena :) FELIZ AÑO A TODOS!!!


Es lo que hay, más no se puede hacer.

Por lo menos se intentó :brindis:
---------------------------------


Sondraco, gracias por tu aportación.

Me parece una pagina muy interesante +1 por tu interes. :ok:
Subir
choki
#6 por choki el 31/12/2007
Pues a mi me parece una propuesta muy interensante. Lo de incluir un archivo de audio o un pequeño video sería la ostia ya. Hace mucho tiempo yo propuse algo parecido pero en vez de con licks con acordes, para enriquecer nuestro repertorio y conocer nuevas disposiciones.

Me miraré la página esa que habeis puesto a ver que tal.

Un saludo!
Subir
KikeAOR
#7 por KikeAOR el 31/12/2007
La idea en si seria crear algo como una libreria enorme. Donde cada uno aportara lo que pudiera de forma ordenada (ya que se podrian crear secciones dentro), ya sea un acorde chulo, un lick blusero que le enseño el otro dia un amigo o cualquier cosa :D

Yo lo veria genia el hecho de tener un sitio de facil acceso y ordenado para poder encontrar todo tipo de recursos interesantes..............La verdad es que no se si deberiamos proponerlo en algun lugar para que la gente lo votara o algo............aunque tampoco parece haber tenido mucho exito
Subir
josep
#8 por josep el 31/12/2007
Dejemos pasar unos dias a ver si la gente se anima, creo que seria una pena dejar pasar una cosa así, de todos modos si no se hiciera, me parece que me haria una para mi, es una idea que nos ayudaria a enriquecernos.
Subir
KikeAOR
#9 por KikeAOR el 31/12/2007
Pues cuenta conmigo que yo te ayudo a crear una, que tambien me interesa ;)
Subir
Ikazategi
#10 por Ikazategi el 31/12/2007
ok, habersi me pongo un rato y saco algun rato para colgar alguno...

de todas formas, recuerdo que habia una pagina que era un calendario y cada dia ponian un lick diferente.... haber si la encuentro...

muy buena idea, +1!
+1 tambien por la pagina esa!
Subir
KikeAOR
#11 por KikeAOR el 31/12/2007
si si, si la pagina esa os la colgue yo hace ya tiempo, pero no se, he visto cosas que no parecen muy productivas...............es decir, a veces como licks nos ponen ahi una escala subiendo y bajando, y eso musicalmente tampoco me dice mucho (que no quiere decir que a veces no se utilice.....)

La pagina en si era www.365practicesessions.com, y ya digo que no esta mal, pero molaria crearse entre todos algo util y directo
Subir
harry
#12 por harry el 31/12/2007
Un punto de mi parte por esta iniciativa. Para los que somos nuevos, practicar estas cosillas nos puede servir para progresar, sobre todo si tienen un video añadido como se sugirió más arriba, que yo me hago un lío con los tiempos de las tabs todavía, je-je.
salu2
Subir
Hilos similares
Responder

Regístrate o para poder postear en este hilo