Canciones con tapping a 8 dedos

  • 1
tomas123123
#1 por tomas123123 el 10/01/2011
me podrain decir algunas canciones on tapping a 8 dedos que nosean heroes of sand y midgnigth porfavor
Subir
zeph
#2 por zeph el 11/01/2011
Buenas.
Solo te diré un nombre: Buckethead
Tiene muchas pero ahora mismo que me vengan a la mente es
Jordan
Pero muchos de sus temas suele improvisar los solos en directo y utiliza mucha esa tecnica
Subir
Marty = God
#3 por Marty = God el 11/01/2011
Podes tratar de aprender lo que hace Chris Broderick en "Betcha can't play this!"



Primero lo hace rapido y despues lo explica, esta en ingles, pero si sabes algo de ingles se entiende bien :D

Saludos!
Subir
tomas123123
#4 por tomas123123 el 11/01/2011
gracias lml
Subir
Pasando pantalla
#5 por Pasando pantalla el 11/01/2011
Mira, te propongo un ejercicio. Se puede hacer mucho con muy poco. Como sabes en todo en esta vida hay que empezar por lo sencillo para luego poderlo hacer más complicado.
Con este ejercicio con la pentatónica aprenderás a pasar de una cuerda a la otra pasando por las 6. Con la derecha toca sólo con un dedo, cuando lo domines pasas a 2 dedos, después a 3 y finalmente a 4 dedos. Hazlo de la 6ª a la 1ª cuerdas y viceversa. O sea, ascendente y descendente.
------------------------------------------------------------(9)-4-7-4---
------------------------------------------------(9)-4-7-4---------------
-------------------------------------(8)-4-6-4--------------------------
-------------------------(9)-4-6-4--------------------------------------
-------------(9)-4-6-4--------------------------------------------------
-(9)-4-7-4--------------------------------------------------------------

Con esto ya estarás acostumbrado a tocar con los 4 dedos de la derecha y podrás hacer variaciones de este ejercicio como por ejemplo hacerlo en diferentes patrones y también con las 2 manos más alejadas la una de la otra.
Ahora te propongo un segundo ejercicio:
----------------------------------------------------------------------------------------------------------------------------(11)-4-7-4-(9)-4-6-4--
----------------------------------------------------------------------------------------------------(12)-4-7-4-(9)-4-7-4--------------------------
----------------------------------------------------------------------------(11)-4-6-4-(8)-4-6-4--------------------------------------------------
---------------------------------------------------(11)-4-6-4-(9)-4-6-4---------------------------------------------------------------------------
--------------------------(11)-4-6-4-(9)-4-7-4----------------------------------------------------------------------------------------------------
-(11)-4-7-4-(9)-4-7-4-----------------------------------------------------------------------------------------------------------------------------
Con esto puedes hacer más variaciones y tendrás la mano acostumbrada y podrás pasar a la escala diatónica, por ejemplo.
Subir
Entrance
#6 por Entrance el 11/01/2011
Interesante, voy a revisarlo.
Subir
tomas123123
#7 por tomas123123 el 11/01/2011
Claudi escribió:
Mira, te propongo un ejercicio. Se puede hacer mucho con muy poco. Como sabes en todo en esta vida hay que empezar por lo sencillo para luego poderlo hacer más complicado.
Con este ejercicio con la pentatónica aprenderás a pasar de una cuerda a la otra pasando por las 6. Con la derecha toca sólo con un dedo, cuando lo domines pasas a 2 dedos, después a 3 y finalmente a 4 dedos. Hazlo de la 6ª a la 1ª cuerdas y viceversa. O sea, ascendente y descendente.
------------------------------------------------------------(9)-4-7-4---
------------------------------------------------(9)-4-7-4---------------
-------------- ----------------------(8)-4-6-4--------------------------
-------------------------(9)-4-6-4--------------------------------------
-------------(9)-4-6-4--------------------------------------------------
-(9)-4-7-4--------------------------------------------------------------

Con esto ya estarás acostumbrado a tocar con los 4 dedos de la derecha y podrás hacer variaciones de este ejercicio como por ejemplo hacerlo en diferentes patrones y también con las 2 manos más alejadas la una de la otra.
Ahora te propongo un segundo ejercicio:
----------------------------------------------------------------------------------------------------------------------------(11)-4-7-4-(9)-4-6-4--
----------------------------------------------------------------------------------------------------(11)-4-7-4-(9)-4-7-4--------------------------
----------------------------------------------------------------------------(10)-4-6-4-(8)-4-6-4--------------------------------------------------
---------------------------------------------------(11)-4-6-4-(8)-4-6-4---------------------------------------------------------------------------
--------------------------(11)-4-6-4-(8)-4-7-4----------------------------------------------------------------------------------------------------
-(11)-4-7-4-(9)-4-7-4-----------------------------------------------------------------------------------------------------------------------------
Con esto puedes hacer más variaciones y tendrás la mano acostumbrada y podrás pasar a la escala diatónica, por ejemplo.



como se lee esto me explicas porfavor si se leer tablaturas pero no entendi
xd
Subir
Pasando pantalla
#8 por Pasando pantalla el 11/01/2011
Son 2 ejercicios de tapping. El número que va entre paréntesis es la nota que se tappea (si se puede decir así) y las demás notas con hammer on/pull off. O sea, que no necesitas la púa para nada. Si estas haciendo tapping con 8 dedos no la puedes tener en ninguna mano.
Son ejercicios elementales pero esenciales para saber hacer ejercicios o melodías más complejas. Cuando los domines mírate en el espejo o grábate en un vídeo y verás que quedas más chulo que un 8. ¡Suerte!
:saludo:
Subir
tomas123123
#9 por tomas123123 el 11/01/2011
gracias lml
Subir
Pasando pantalla
#10 por Pasando pantalla el 11/01/2011
Perdona, he corregido el 2º ejercicio. :oops:
Subir
sauley
#11 por sauley el 11/01/2011
Building the church, de Steve vai.
Subir
Pasando pantalla

Hilos similares

Respuesta rápida

Regístrate o para poder postear en este hilo