Ayuda en Guitar Pro

daathrocks
#1 por daathrocks el 04/05/2011
Hola a todos, mi problema es que no puedo pasar una transcripsión al Guitar Pro. les pongo el sonido abajo para que me puedan ayudar.

No los puedo escribir en el guitar pro, no se como, pero lo quiero en velocidad 168 de Tempo.
Las partituras son:

W
E||-------------------|-------------------|-------------------|
B||-------------------|-------------------|-------------------|
G||-------------------|-------------------|-------------------|
D||--2----------------|-------------------|-------------------|
A||--0----------------|-------------------|-------------------|
E||-------------------|-------------------|-------------------|


Q Q Q Q H H Q Q Q Q
----------------------|--------------------|----------------------||
----------------------|--------------------|----------------------||
----------------------|--------------------|----------------------||
----------------------|--------------------|----------------------||
--5----3----5----7--|--5--------7----- |--5----3----5----7--||
--3----1----3----5--|--3--------5----- |--3----1----3----5--||
Archivos adjuntos:
Subir
silencioman
#2 por silencioman el 04/05/2011
no entendi pero tenia ganas de hacer el paso al gp...
asi ? primera vez que adjunto algo no se si se ve.

PD: Ah, de oido lo saque... no segui la tab que dejaste...
Archivos adjuntos:
Subir
daathrocks
#3 por daathrocks el 04/05/2011
silencioman escribió:
no entendi pero tenia ganas de hacer el paso al gp...
asi ? primera vez que adjunto algo no se si se ve.

PD: Ah, de oido lo saque... no segui la tab que dejaste...


Gracias amigo, solo que era en E Bemol, pero no te preocupes me sirvio mucho, gracias.
Subir
[Michael Killer]
#4 por [Michael Killer] el 04/05/2011
La tab de silencioman es igual en cuanto a notas de tu muestra de audio, la tab q pusiste en texto esta +1 semitono de lo q tocas xD tambien procura grabar con metronomo :ok:

Salu2 :saludo:
Subir

Hilos similares

Respuesta rápida

Regístrate o para poder postear en este hilo