Patrones repetitivos

#1 por viejocaminante el 18/01/2008
Patrones repetitivos

Muchas veces, cuando estamos soleando, podemos usar este recurso que es parte del lenguaje de un solo. Es como si al hablar dijéramos: "Pues bien..." Es una muletilla que bien usada puede darle cierta claridad a nuestra coversación.

En el soleo, muchas veces decimos que un buen solo es inspiración y que bueno, que como tal, sale del alma. Sin embargo hay ciertos clichés que nos ayudan a expresar eso que nuestra alma quiere decir. UNa de esas cosas son los patrones repetitivos.

¿Quién no recuerda la sección de picking de EROTOMANIA? Pues ahí hay un claro ejemplo de cómo usar estos patrones. Lo ideal es que los patrones que tocamos encajen en nuestros compases. Por ejemplo si tocamos en compases de 4/4 , tocaremos cuatro patrones de notas que encajen en nuestro compás.

Yo quería aqui plantear patrones sencillos de picking que no permitan tocar figura complejas como son los grupetes de 5 y de 7 notas

(Patrón de 5 notas)
-----------------------
-----------------------
-----------------------
---12--10--9--10--12--
-----------------------
-----------------------

Eso es todo. Tocar cinco notas en el equivalente a una negra. Un ejemplo de cómo usar esto (en una escala de D) sería este:

-------------------------------------------------------------------
-------------------------------------------------15-14-12-14-15--
-----------------11-12-14-12-11----------------------------------
14-12-11-12-14------------------14-12-11-12-14------------------
-------------------------------------------------------------------
-------------------------------------------------------------------

-----------------12-14-15-14-12------------------14-15-17-15-14--
----------------------------------17-15-14-15-17-------------------
11-12-14-12-11-----------------------------------------------------
--------------------------------------------------------------------
--------------------------------------------------------------------
--------------------------------------------------------------------

etc, etc.

Lo mismo, para tocar un patrón de siete notas de la forma más sencilla, haríamos lo siguiente

-------------------------------------
-------------------------------------
-------------------------------------
---11--12--14--12--11--12--14------
-------------------------------------
-------------------------------------

Ahora, un ejemplo en Dm de cómo tocar este patrón sencillo (pero muy rápido) sería este:

18-17-15-17-18-17-15-----------------------------------------------
-----------------------18-17-15-17-18-17-15------------------------
---------------------------------------------17-15-14-15-17-15-14--
---------------------------------------------------------------------
---------------------------------------------------------------------
---------------------------------------------------------------------

------------------------------------------------
------------------------------------------------
------------------------------------------------
-17-15-14-15-17-15-14-------------------------
----------------------------17(redonda)--------
-----------------------------------------------

Así, con ejercicios tan simples como esos, tocados en una sola cuerda. Los pueden practicar con metrónomo a 100 bpm (tocar cada grupete en cada beat) de ahí ir subiendo hasta 130 bpm o hasta donde su velocidad les permita y pueden poner estas frases rápidas y de sonido "complejo" en sus solos para adornarlos un poco.
:brindis:
Ojalá les sirva de algo este ejercicio.

Saludos
Subir
#2 por juanrafa15 el 05/02/2008
Usar patrones repetitivos en ciertos momentos es bueno, pero es un recurso del que si se abusa, se torna en algo aburrido...
De todas formas buenos patrones, una clave para que no se vuelvan tan repetitivos es tocar estos mismos a velocidad de semicorcheas (4 notas por negra), y asi el acento se desplaza, lo que lo vuelve aun mas interesante.
Subir
#3 por silver el 20/02/2008
A Quien He Visto Usar Patrones Repetitivos Es A Slash Y Biejn Usados Se Oyen Geniales
Subir
Respuesta rápida

Regístrate o para poder postear en este hilo