Tabs legado de una tragedia

#1 por jorgemg el 07/05/2011
hola no soy mucho de abrir hilos jeje os pido por favor si alguien tiene tabs de esta maravillosa opera rock en español me las pueda pasar mas concretamente de la canción no quiero morir
Subir
#2 por Pasando pantalla el 10/05/2011
¿Es esta? Mañana te la paso que hoy ya estoy cansado y me meto en el sobre. :zzz:
Subir
#3 por jorgemg el 10/05/2011
si esa es te agradeceria que me la pasases un abrazo
Subir
#4 por Pasando pantalla el 11/05/2011
Jorge, ya tengo la base. A ver si mañana ya lo completo todo.
Subir
#5 por jorgemg el 11/05/2011
muchas gracias si lo konsigues te tendre uq invitara una birra :ok:
Subir
#6 por Pasando pantalla el 12/05/2011
Estrofa
------------------------------------------------------------------------------
------------------------------------------------------------------------------
---------------------4--------------------------4----------------7-6-4-----
-4-----6-7----7------7----4----6-7----7--------7-6-4----4-7--------7-
---5-5----------5-5---------5-5----------5-5-----------5-----------------
------------------------------------------------------------------------------

--------------------------------------------------|
--------------------------------------------------|
--------6-4--------------------------------------|
------4-----7-6--------5-4---------------------|
-5-5---------------3-3---------3-3-4-4~~/--|
--------------------------------------------------|...y lo repite otra vez.

Puente
----------------------------------------------------------------------------------------|
--------------5-7------3-5-7~~---------------7-------------------------------------|
------4-6-7------6~~-----------5-5-5-5-(6)---7-6-4-6-7-6--4--------4--------|
-----------------------------------5-5-5-5-(6)--------------------7-6-4----7-6-4--|
-5-5------------------------------3-3-3-3-(4)---------------------------------------|
----------------------------------------------------------------------------------------|

Estribillo
-----------------------|------|
--------------------6-|-10--|
----7-8-7-7-5-6-6--|-11--|
-4--6-7-6-7-5-6-6-|-11--|
-4--5-6-5-5-3-4-4-|--9--|
-2--------------------|------|

Después de "la anarquía me hace reír":
------------------------|
---------------4-5-6--|
--------3-5-6---------|
-3-5-6----------------|
------------------------|
------------------------|

En fín. Creo que esto es todo. Si hay algo más me lo dices. Prefiero un cubata. :D
:saludo:
Subir
#7 por jorgemg el 12/05/2011
Dios que grande te debo una copa jajajajaja por icerto es la anarquia me ha de regir jajajaj
Subir
#8 por Pasando pantalla el 12/05/2011
jorgemg escribió:
por cierto es la anarquia me ha de regir jajajaj
:risa: :risa: :brindis:

P.D. Lo dejaré tal y como lo escribí para que pase a la posteridad. :D
Subir
#9 por jorgemg el 12/05/2011
la parte de la estrofa es dificil
Subir
#10 por Pasando pantalla el 13/05/2011
Sí, en cada fraseo mezcla el palm mute al principio y después sigue sin palm mute. ¿Pero está correcto? Puede que en la segunda estrofa, después del primer estribillo, lo varíe un poco. Si es así me avisas y me pongo de nuevo.
Subir
Respuesta rápida

Regístrate o para poder postear en este hilo