Que significa la x en las tablaturas?

  • 2
Emiliio Ignacio
#13 por Emiliio Ignacio el 13/06/2012
cómo se hace esto ayuendeme

|------------------------|
|------------------------|
|------------------------|
|------------------------|
|-7p5-5-7-5-7-5-7p5-5-7--|
|------------------------|
X X
Subir
Paula Andrea Valdés Cabello
#14 por Paula Andrea Valdés Cabello el 09/12/2012
como puedo hacer esto???
e|------------------|--------------------|---------------|---------|
b|------------------|--------3-3---------|---------------|---------|
g|---2-x--0-0--x----|---2-x--3-3—-3-5---2|--2-x--0-0--x--|--2-X----|
D|---3-x--0-0--x----|---2-x-----------3--|--3-x--0-0--x--|--2-X----|
A|---3-x-------x----|---3-x--1-1---------|--3-x-------x--|--3-X----|
E|-1---x--1-1--x----|--1--x--------------|-1--x--1-1--x--|-1--X----|


e|------------------|--------------|-------------|------------|
b|--3-3--X----------|--------------|-------------|------------|
g|--3-3--X----------|--------------|-------------|------------|
D|-------X----------|--------------|-------------|------------|
A|--1-1--X----------|--------------|-------------|------------|
E|------------------|--------------|-------------|------------|
Subir
SR7
#15 por SR7 el 09/12/2012
Mutear las cuerdas y rasgar, si no me equivoco
Subir
Hilos similares
Respuesta rápida

Regístrate o para poder postear en este hilo