Recuperado: Ejercicio combinado alternate-string skipping-independencia

Jorge Rubiales
#1 por Jorge Rubiales el 21/12/2007
Vamos alla con este ejercicio que publique en el foro viejo hace un par de años. Como la mayoria de los ejercicios que me hago, trabaja una combinacion de varias tecnicas a la vez, para ahorrar tiempo.

En concreto, string skipping (saltos de cuerdas), alternate picking (todo el ejercicio se hace con alternate) e independencia de los dedos de la mano izquierda.

Pues nada, cualquier duda posteen y la resuelvo en cuanto la lea ^_^ Que lo disfruten!
-----------------------------------------------------------
Todas las notas son a corcheas. Una vez memorizado el movimiento que tienen que hacer los dedos, estaria bien usar el metronomo. El ejercicio se puede mover hacia arriba o hacia abajo en el mastil, si os resulta muy dificil abrir la mano a esa altura.

4/4
E E E E E E E E E E E E E E E E E E E E E E E E
E|-5---4---3---2---|-5---4---3---2----|-5---4---3---2-----|
B|---2---5---4---3-|------------------|--------------------|
G|------------------|---2---5---4---3-|--------------------|
D|------------------|------------------|---2---5---4---3---|
A|------------------|------------------|--------------------|
E|------------------|------------------|--------------------|






E E E E E E E E E E E E E E E E E E E E E E E E
E|-5---4---3---2---|-5---4---3---2---|-5---4---3---2---|-----------------|
B|------------------|-------------------|-------------------|-----------------|
G|------------------|-------------------|-------------------|----etc.--------|
D|---2---5---4---3|-------------------|-------------------|-----------------|
A|-----------------|---2---5---4---3--|-------------------|-----------------|
E|-----------------|--------------------|---2---5---4---3-|-----------------|

Saludos
Subir
xavieritox
#2 por xavieritox el 21/12/2007
oh se ve muy complicado...pero es ideal para gente ociosa como yo:D ...gracias:ok:
Subir
Magio420
#3 por Magio420 el 21/12/2007
..................y la verdad me gusta sobre todo por el salto de cuerda
Subir
Manuel_Baez
#4 por Manuel_Baez el 21/12/2007
+ 1 al tanto, es interesante
Subir
ranfla
#5 por ranfla el 28/12/2007
Muy buen ejercicio, gracias por compartirlo! +1
Subir
trino
#6 por trino el 28/12/2007
En cuanto agarre la guitarra lo voy a probar, creo que me va a venir muuuy bien :ok:

Gracias kambor :saludo:
Subir
Julio
#7 por Julio el 29/12/2007
Me parece muy exagerado y poco práctico, la verdad, saltarse una cuerda aún es aprovechable pero dejarse dos o más cuerdas para tocar una nota no, la idea es muy buena pero para mi gusto falta desarrollo.

:saludo:
Subir
Jorge Rubiales
#8 por Jorge Rubiales el 13/01/2008
Hombre, esta claro que esto no lo vamos a trabajar en una cancion real, pero mi forma de diseñar los ejercicios es exagerar un poco la tecnica, porque si somos capaces de llevar esto a un buen tiempo y de forma limpia, los dedos adquieren mucha independencia vertical, con lo que los cambios de acordes por ejemplo se nos haran menos complicados.

Y en cuanto a la pua, pues mas de lo mismo. Consigues bastante "punteria" al hacer saltos de cuerda tan grandes. Pero vamos, quien componga un solo con algun patron de estos la verdad es que es pa rizar el rizo xD
Subir

Hilos similares

Respuesta rápida

Regístrate o para poder postear en este hilo