Marilyn manson- Sweet dreams

Odio al Venereas Baneado
#1 por Odio al Venereas el 26/12/2008
Sweet Dreams - Marilyn Manson

b = bend

Riff intro
e|-----------|-----------------|
B|-----------|-----------------|
G|-----------|-----------------|
D|----5-6-5--|-----------------|
A|-3-3-3-3-3-|-----6\8-----5\6-|
E|-----------|-4-4-----3-3-----|

Refrão
e|-------|------|------|----------------------------|
B|-------|------|------|----------------------------|
G|-------|------|-5----|--------------------------5-|
D|-6-----|-5----|-5(8x)|-6------5--6----|-5-------5-|
A|-6(13x)|-5(2x)|-3----|-6(7x)--5--6(8x)|-5-(8x)--3-|
E|-4-----|-3----|------|-4------3--4----|-3---------|

(Volta p/ Riff)

Solo 1
3x 2x
e|---------------|--------------|-------------|----|
B|---------------|-----------6b-|-------------|----|
G|-5-----5-5-5—7b|-5-----5-5----|-5-----5-5---|-5~-|
D|--8-8-8--------|--8-8-8-------|--8-8-8---7b-|----|
A|---------------|--------------|-------------|----|
E|---------------|--------------|-------------|----|

Solo 2
e|---8-11-11--8---------------------------------
B|-11-------11--11------------------------------
G|----------------10b---------------------------
D|---------------------10-8-10------------------
A|-----------------------------8b~-8b-8b-8b-----
E|------------------------------------------8-8-

e|-------------------------------------11-13b----|
B|-----------------------------11b~--11------13~-|
G|--------------------8-10-10b~------------------|
D|----------10-10-12b~---------------------------|
A|--6-8-8b---------------------------------------|
E|-8---------------------------------------------|

Solo FINAL
e|---------------|---------------|-------------------|-
B|---------------|---------------|-5-----5-5-5-7b-5-5|-
G|-5-----5-5-5-7b|5-----5-5-5-6b-|--8-8-8----------8-|-
D|--8-8-8--------|-8-8-8---------|-------------------|-
A|---------------|---------------|-------------------|-
E|---------------|---------------|-------------------|-

e|-8—8—10b--8—8-13b|-8-----8-8-8-10b-|-13b----|
B|--11-------11----|--11-11----------|-----7~-|
G|-----------------|-----------------|--------|
D|-----------------|-----------------|--------|
A|-----------------|-----------------|--------|
E|-----------------|-----------------|--------|

Nota: El primer riff la primera vez 10 veces, despues se hace el segundo riff y el primer riff se repite 12 veces luego se repite 4 veces entre el solo 1 y el solo 2
Subir
Alex Phrymerial
#2 por Alex Phrymerial el 27/12/2008
Bnn!!

Esa tab estava en busca!
Subir
Odio al Venereas Baneado
#3 por Odio al Venereas el 27/12/2008
de nada colega, pero le he dado a copiar y pegar y algunos tramos me han salido un poco torcidos, luego pondre el link :)
Subir
Hilos similares
Responder

Regístrate o para poder postear en este hilo