Maggie despierta

#1 por pepgatxes el 10/01/2011
¿tiene alguién la trascripción completa de violin para Maggie despierta,version de M-clan?
Subir
#2 por Pasando pantalla el 10/01/2011
El solo no lo he sacado pero tanto el violín como la guitarra puedes tocarlos por estos patrones, aunque la guitarra también toca notas más graves:
------------------------------------------------------------8--9--11---
----------------------------------------------------9--11--------------
---------------------------------------8--10--11----------------------
--------------------------8--10--11-----------------------------------
--------------8--9--11-------------------------------------------------
--8--9--11-------------------------------------------------------------

De la mitad en adelante toca notas más agudas y te puedes mover por este otro patrón:
---------------------------------------------------------------------13-14--16---
------------------------------------------------------13--14--16-----------------
---------------------------------------------13--15-------------------------------
-------------------------------13--15--16----------------------------------------
-----------------13--15-16-------------------------------------------------------
--13--14--16---------------------------------------------------------------------

Está en DO#mayor/REbmayor y no se sale de la tonalidad.
Subir
#3 por Pasando pantalla el 15/01/2011
De nada, ¿eh? :bien:
Subir
#4 por ABusLux el 15/01/2011
Claudi escribió:
De nada, ¿eh? :bien:


Muy bueno :risa:
Subir
#5 por pepgatxes el 15/01/2011
Claudi termino de ver tus mensajes,(estaba de viaje) muchas gracias espero que me sirva de orientación,
Subir
#6 por Pasando pantalla el 16/01/2011
ABusLux escribió:
Muy bueno :risa:
¿Qué tal, amigo? :brindis:
Subir
#7 por pepgatxes el 16/01/2011
Bueno es una escala orientativa, me sirve, gracias de nuevo.
Subir
#8 por Pasando pantalla el 16/01/2011
Sí, perdona que sólo te oriente pero es que quiero que lo saques de oído. Una vez ubicado no te será difícil, ya lo verás.
:brindis:
Subir
Respuesta rápida

Regístrate o para poder postear en este hilo