La Fuga - Majareta

#1 por Satara el 28/05/2011
¡Hola buenas! Llevo semanas intentado encontrar tabs de Majareta y lo único que encuentro son los acordes. Eso está muy bien, pero el problema es que la canción está hasta arriba de riffs y solos y solo con los acordes no me da y es urgente que consiga una trasncripción :(
¿Alguien tiene alguna?
¡Gracias de antemano!:saludo:
Subir
#2 por Pasando pantalla el 30/05/2011
En principio a partir de los acordes puedes empezar a montar un riff. Tampoco veo que haya tanto riff y solo hay un solo. ¿Es esta?
Subir
#3 por Satara el 06/06/2011
Claudi escribió:


Sí, es esta. La cosa es que no soy muy bueno en eso de sacar solos y me gustaría hacerlo lo más parecido posible a la canción original. Aunque la verdad es que con encontrar una transcripcion del solo me conformo, porque los riffs ya los he sacado más o menos con ayuda de un colega (pero es que no podemos sacar el solo ni de coña; no nos da... :( )
Subir
#4 por Pasando pantalla el 07/06/2011
Aquí teneis el solo. Está en pentatónica Bm.
|----------------------------5----whamy------------------------------------------------------|
|-5b-5b-b5-3-5-5~~~5b---5bwhamy---5-3-5-5-3---3--------------------------------|
|-------------------------------------------------------------4---4-4-2--2---------------------|
|------------------------------------------------------------------------4--4-2-----------------|
|---------------------------------------------------------------------------------5/(2)whamy-|
|-------------------------------------------------------------------------------------------------|


|-------------------------------|----------------------------------------------|-----------------------------|
|-------------------------------|-------------------5-----10-----------------|--------------10---whamy-|
|-------------------------------|----------------7----9b-----9b-b9-7-9-7/|-----7-9-9b----b9whamy-|
|-----------------2------------|----------4-7b------------------------------|-7-9-------------------------|
|-5/(2)-5/(2)-2--5-2-5/(2)|-2/-5-7b------------------------------------|------------------------------|
|-------------------------------|---------------------------------------------|------------------------------|


|---------------------------10-12-12b-12b-b12-10-10-12-10----10--------------------|
|-------------10-7-10-12-----------------------------------------12----10-12-10--------|
|-b9-7-9-9b--------------------------------------------------------------------------11~~|
|----------------------------------------------------------------------------------------------|
|----------------------------------------------------------------------------------------------|
|----------------------------------------------------------------------------------------------|


|------12--------------------------------------------------------------------|
|-12b----b12-10-----------------------------------------------------------|
|-------------------11-9----9-9--------------------------------------------|
|-------------------------12-----12-9-12-11-9-11-12-11-9-------------|
|-----------------------------------------------------------------12-14~~~|
|-------------------------------------------------------------------------------|
La única nota no pentatónica es el 11 en la cuarta cuerda (segunda mayor de Bm diatónica).
Si se os traba alguna otra parte me lo decís.
:saludo:
Subir
#5 por Satara el 08/06/2011
¡Muchísimas gracias! ¡Nos has salvado el pellejo! :D
Subir
#6 por Pasando pantalla el 10/06/2011
Gracias por el +1, amigo. :brindis:
Subir
Respuesta rápida

Regístrate o para poder postear en este hilo