Como hacer barridos ?

#1 por soelreaper el 10/11/2008
barridos y no sweep picking
el sweep picking es esto
-----------------------------------1-2-3--
-----------------------------1-2-3--------
----------------------1-2-3---------------
---------------1-2-3----------------------
--------1-2-3-----------------------------
-1-2-3------------------------------------
baridos es esto
-1-------------------1-------------------1
---2---------------2---2---------------2--
-----3-----------3-------3-----------3----
-------4-------4-----------4-------4------
---------5---5---------------5---5--------
-----------6-------------------6----------
bueno en fin lo que quiero sabr es como se hace el movimiento de la mano dercha se mueve la muñeca o el brazo y como se hae para que suene cada nota por separado y no como si esuvise tocando un acorde.
Subir
#2 por asffixiado el 10/11/2008
esto no va aqui va en tecnicas

creo que soy adicto a JIM DUNLOP

Subir
#3 por asphix el 10/11/2008
Y ademas de que esta en el lugar incorrecto, tienes erroneos los conceptos de las tecnicas, lo que llamas sweep, en realidad es speed picking, y lo que llamas barridos en si es el sweep picking...

-----------------------------------------------------
La falta de talento se puede compensar con disciplina...

Subir
#4 por Andrew85 el 10/11/2008
Lo primero que p usiste no es sweep. ese 123 123 123. Eso puede ser: 1) Economy Picking 2) Alternate picking 3) Legato. El segundo que pusiste si se llama seep picking. Lo que sucede es que (según tengo entendido) sweep picking y barridos es lo mismo, son sinónimos, pero sweep es en inglés y barridos en español. De echo la mima palabra dice como se hace la técnica: es cómo si estuvieras barriendo encima de las cuerdas con la pua. Tu mano debe ir bajando o subiendo a una velocidad uniforme a la vez que toca cada cuerda. Cada dedo debe estar en su posición correctan a medida que la pua va bajando o subiendo.

El presente mensaje no es más que una opinión personal que no constituye, bajo ninguna circunstancia, una verdad absoluta.

Subir
Respuesta rápida

Regístrate o para poder postear en este hilo