Improvisar por todo el mastil

#1 por lemur el 07/01/2011
Hola a todos. Siempre que improviso, suele emplear multitud de tecnicas y unos cuantos licks demoledores de cada escala, pero por ejemplo, improvisando en mi, siempre me limito al traste 12 o a tocar abierto, mientras que veo que muchos shredders y musicos, se mueven por todo el mastil en este tono...a que lugares puedo moverme? Muchas gracias a todos
Subir
#2 por eddietrooper el 07/01/2011
Las escalas no se limitan a una posición determinada, tienes que saber seguir una escala en cualquier parte del mástil. Para esto te pueden ayudar distintos diagramas con patrones por todo el mástil, pero también es útil que por tu cuenta busques diferentes maneras de moverte por las escalas. Deberías ser capaz por ejemplo de tocar la escala que quieras a lo largo de una sola cuerda, o pasar de un patrón a otro desde la nota que quieras, etc, es cuestión de ir probando y habituarte a diferentes cambios y posiciones. Al final de lo que se trata es de que tengas una melodía en tu mente y la puedas ejecutar en la parte del mástil que quieras sin tener que pensar en escalas, patrones, etc. Para llegar a eso, practica, prueba a salirte de esos patrones establecidos. Suerte !

Escucha mi nuevo tema!!
http://www.guitarristas.info/foros/wizard-and-glass-nuevo-tema-cantado/277273

Descárgate mi 2º CD:
http://www.guitarristas.info/foros/eddietrooper-descarga-gratuita-mi-2-cd/234428

Subir
#3 por Pasando pantalla el 08/01/2011
Buen consejo de EddieTooper.
Aparte de tocar en vertical (de la 1ª a la 6ª cuerda y viceversa) debes aprender a tocar en horizontal y en diagonal (3 o 4 notas por cuerda).
En horizontal puedes tocar esto. Secuencias de 3 notas:
-0--1--3--1--3--5--3--5--7--5--8--7--8--10--8--10--12--....y así hasta que se te termine el mástil. Tócalo de modo descendente también y en las cuerdas que quieras.
Secuencia de 2 notas:
-1--0--3--1--5--3--7--5--8--7--10--8--12--10--13--12--.......hasta el final de la guitarra ascendente y descendente y en las cuerdas que quieras.


En diagonal, 3 notas:
---------------------------------------------------3--5--7---------
-----------------------------------------3--5--6-------------------
-------------------------------2--4--5-----------------------------
---------------------2--3--5---------------------------------------
-----------2--3--5-------------------------------------------------
-1--3--5-----------------------------------------------------------

Ya no estás en el mismo patrón, ¿verdad? Tócalo de modo descendente también.
Ahora prueba con 4 notas, ascendente y descendente:
---------------------------------------------------------------------------------12--13--15--17---
-------------------------------------------------------------10--12--13--15------------------------
--------------------------------------------7--9--10--12--------------------------------------------
-----------------------------5--7--9--10------------------------------------------------------------
---------------3--5--7--8----------------------------------------------------------------------------
-1--3--5--7------------------------------------------------------------------------------------------

Si tu guitarra tiene 24 trastes como la mía puedes llegar hasta el final añadiendo un slide en cada cuerda.
En los ejercicios en diagonal puedes tocar las notas siguiendo el orden que te he puesto en los ejercicios en horizontal, ascendente y descendente.

http://www.guitarmonia.es/intervalos-musicales/intervalos-en-la-guitarra/
http://www.pianoaventura.com/documentos/curso_completo_de_teoria_de_la_musica.pdf
http://www.all-guitar-chords.com/guitar_scales.php
http://www.discoverguitaronline.com/

Subir
#4 por steve506 el 08/01/2011
básicamente, algo util es aprender a improvisar en una sola octava de la escala, si te aprendes una frase ahi y luego la transportas a la octava siguiente (algo bastante facil puesto que en muchas partes del diapasón se toca todo igual incluso cambiando de cuerdas)...pues ahi tienes tu idea extendida.

Es algo muy básico pero que te puede ayudar a expandirte por el instrumento.

No comparto tus ideas, pero moriría por defender tu derecho a expresarlas.

Subir
Respuesta rápida

Regístrate o para poder postear en este hilo