(Petición) Concierto 4 de violín por Paganini- Yngwie Malmsteen

#1 por Jorge Pulido el 23/02/2011
Hola buenas quería pedir ayuda a ver si alguien podría sacar el intro de Paganini de Far Beyond the Sun en vivo, ya que no hay tabs. Solo la parte de Paganini, lo demás no hace falta :)
Gracias de antemano!:brindis:
Subir
#3 por Jorge Pulido el 24/02/2011
Claudi escribió:

Claudi: Sí, he buscado en todos esos sitios, en el foro y a ver si había algun cover por Internet, incluso he intentado buscar la partitura para violin para ver si podía hacer algo con ella...pero nada. Creo que, al ser solo un trozo y tocarlo solo en directo, la gente no se molesta en hacer un tab, pero yo soy duro de oido...:| muchas gracias de todos modos!
Subir
#5 por Jorge Pulido el 24/02/2011
Claudi escribió:
¡Ahora caigo! Es que la intro de Far Beyond de Sun no es de Paganini, es el Adaggio de Albinoni. :D
Free-scores.com : adaggio albinoni
Si bueno, esa es una parte pero yo quiero concretamente unas poquitas notas que no soy capaz de encontrar...:oops:
http://www.youtube.com/watch?v=9cVIOuvDUGE[/YOUTUBE] [YOUTUBE]http://www.youtube.com/watch?v=mCtuWG4IPQ0[/YOUTUBE] Eso :D[YOUTUBE]http://www.youtube.com/watch?v=9cVIOuvDUGE[/YOUTUBE]
http://www.youtube.com/watch?v=mCtuWG4IPQ0[/YOUTUBE] Eso :D[YOUTUBE]http://www.youtube.com/watch?v=mCtuWG4IPQ0[/YOUTUBE]
Eso :D
Subir
#7 por Jorge Pulido el 26/02/2011
¿Pero esa página es para comprar libros y CDs? No sé, a mí es lo único que me viene, yo lo único que quiero es el tab, las canciones (la de Malmsteen y Paganini) ya las tengo.
Pero muchas gracias Claudi, se te ve con muchas ganas de ayudar :)
Subir
#8 por Pasando pantalla el 27/02/2011
Je, je...hago lo que puedo.
Yo es que nunca busco TABs. Desde que empecé me acostumbré a sacarlo todo o casi todo de oído. Además las que se encuentran por internet no siempre son fiables.

http://www.guitarmonia.es/intervalos-musicales/intervalos-en-la-guitarra/
http://www.pianoaventura.com/documentos/curso_completo_de_teoria_de_la_musica.pdf
http://www.all-guitar-chords.com/guitar_scales.php
http://www.discoverguitaronline.com/

Subir
#9 por Jorge Pulido el 27/02/2011
¡Qué suerte que puedas, yo no soy capaz!
De todas formas, intentaré sacarlo de oído, pero no me fío nada...muchas gracias colega, de verdad! :brindis:
---------------------------------
Bueno, pues después de ver un par de vídeos de YouTube encontrados de milagro, ya tengo el TAB de la canción. La escribo para quien le interese. Y de nuevo, gracias a Claudi :)

e:-----12-14-15~-14~-12~~-12-12-----------------------------------------------|
B:-12---------------------------------------15-15-13-13-12-12-----------------------------|
G:---------------------------------------------------------------------14-14-12-12~-12h14p12-11~---|
D:--------------------------------------------------------------------------|
A:--------------------------------------------------------------------------|
E:--------------------------------------------------------------------------|

e:-----12-14-15~-17~-19~~--20-17----------------------------------------------|
B:-12--------------------------------------19-20-17--16-17------------------------------|
G:----------------------------------------------------------------15-16-14---------------------|
D:-----------------------------------------------------------------------------16-14~~-------------|
A:--------------------------------------------------------------------------|
E:--------------------------------------------------------------------------|

PD: Perdón por escribir el TAB un poco de aquella manera, es que no tengo ni idea de hacerlos bien :risa: :risa:
Subir
1
#10 por Pasando pantalla el 27/02/2011
cacereslash7 escribió:
¡Qué suerte que puedas, yo no soy capaz!
De todas formas, intentaré sacarlo de oído, pero no me fío nada...muchas gracias colega, de verdad! :brindis:
Me alegro de que encontraras los vídeos y te curraras la TAB, amigo.
Esto de sacar cosas de oído requiere su tiempo. El oído se entrena y como con cualquier cosa en música toma su tiempo. De verdad te lo recomiendo. Empieza por canciones ó solos fáciles y verás que no te das cuenta y ya sacas cosas más complejas.
:brindis:

http://www.guitarmonia.es/intervalos-musicales/intervalos-en-la-guitarra/
http://www.pianoaventura.com/documentos/curso_completo_de_teoria_de_la_musica.pdf
http://www.all-guitar-chords.com/guitar_scales.php
http://www.discoverguitaronline.com/

Subir
Respuesta rápida

Regístrate o para poder postear en este hilo