Empezando a sacar Driving through the tunnel - Jorge Salan

#1 por esdla360 el 02/08/2007
Bueno lo dicho esta cancion es mi favorita de jorge salan y me molaria poder tocarla, pero no encuentro ningun tab y yo soy bastante duro de oido xD para sacarme una cancion por eso pido ayuda a alguien k pueda sacarme algunas notas de esta cancion o entre varios sacar la cancion.
Para empezar he podido sacar la intro :D
Saludos.

--------------------------------------------------------------------------
--------------------------------------------------------------------------
------------------------------------------------------------------------X2
--------------------------------------------------------------------------
-12---14---15---12--------15---14---10--------15---14----17---19---17--
--------------------------------------------------------------------------


-----15--17-----------------------------12--13--------------------------------
-------------18--17---18---15-------------------15---13---15---11---13---10-
7-7------------------------------3-3-------------------------------------------
7-7------------------------------3-3-------------------------------------------
5-5------------------------------1-1-------------------------------------------
--------------------------------------------------------------------------------

----------------------- ----------------------- -----------------------
----------------------- ----------------------- -----------------------
------17-17-17-17----- --15----14----15------ --14--------12--------
------14-14-14-14----- --14----14----14------ --14--------12--------
------15-15-15-15----- --15----15----15------ --15--------11--------
----------------------- ----------------------- -----------------------

Ahi me he kedao xD haber si me podeis ayudar ^^
Subir
#2 por leon el 02/08/2007
Pues yo ando intentando escribirla en Guitar Pro 5, pero ando bastante liado, lo que si te puedo decir es que su tonalidad es Re Menor (por lo menos la parte que llevo escrita)... espero poder acabarlo algún dia :) Como todas mis cosas xD Un Temazo Histórico :oops: Suerte con ello!

P.D: Aquí te dejo también un pequeño enlace con la digitación de la escala, que ayuda bastante en estos casos ;-) Re Menor Patrones


~Entre Tus Brazos lo peor es Despertar~

Subir
#3 por esdla360 el 03/08/2007
Gracias Leon, por darme una guia a seguir la tonalidad Re Menor, haber si puedo avanzar algo mas y en cuanto a tu .gp, me gustaria que me informaras cuando lo tuvieras, me encanta este tema :D

Un saludo +1:saludo:
Subir
#4 por nankawan el 06/08/2007
yo la sabia tocar bastante trozo poero no me acuerdo de nada.....

http://www.facebook.com/javieraltonagaofficial

@JaviAltonaga

Subir
Respuesta rápida

Regístrate o para poder postear en este hilo