Ejercicios digitación y púa (algo más que 1-2-3-4)

  • 1
#1 por cferalva el 14/02/2009
Una vez adquirimos un poco de habilidad con los ejercicios comáticos típicos en plan 1-2-3-4 o variantes o con los patrones de las escalas, nos damos cuenta de que al intentar improvisar o tocar una canción, lo que nos mata es cuando hemos de alternar entre distintas cuerdas, entonces estos ejercicios ya no son tan útiles. Aquí os dejo algunos ejercicios que procuro practicar a menudo y que sirven un poco para potenciar este aspecto. Para que sean útiles realmente, hemos de hacerlos SIEMPRE púa-contrapúa, da igual que toquemos la misma cuerda, la cuerda siguiente, lo que sea... Siempre una vez abajo y otra arriba.

Ejercicio 1
Sin comerse mucho la cabeza, podemos practicar el típico 1-2-3-4 (o cualquier variante) pero colocando los dedos 2 y 4 (o los que queramos) en la cuerda siguiente, por ejemplo:

-----------------------------------6---8-
---------------------------6---8-5---7---
-------------------6---8-5---7-----------
-----------6---8-5---7-------------------
---6---8-5---7---------------------------
-5---7-----------------------------------



Ejercicio 2
Se practica por pares de dedos como 3 y 4 (que joden más :) ) Ejemplo:

-----------------------------------------------------------------5---5-6-
-----------------------------------------------------5---5-6-5-6---6-----
-----------------------------------------5---5-6-5-6---6-----------------
-----------------------------5---5-6-5-6---6-----------------------------
-----------------5---5-6-5-6---6-----------------------------------------
-----5---5-6-5-6---6-----------------------------------------------------
-5-6---6-----------------------------------------------------------------



Ejercicio 3 (un poco más difícil....mejor)

Tocaremos siempre con los dedos 1 2 3 y 4 los trastes 5 6 7 y 8 respectivamente.

-5-6---7-----8--------------------------------------
-----5---6-----7-----8------------------------------
-----------5-----6-----7-----8-----------------------
-------------------5-----6-----7-----8---------------
---------------------------5-----6-----7---8---------
-----------------------------------5-----6---7-8---

Este ejercicio puede hacerse comenzando en los 4 puntos marcados, y acabará siempre en el punto opuesto. Por ejemplo, si comenzamos aquí, acabará aquí; si comenzamos aquí, acabará aquí:

|-5-|---|---|-8-|
-----------------
-----------------
-----------------
-----------------
|-5-|---|---|-8-|


Bueno, pues a ver si a alguien le sirve de ayuda! :brindis:

Un saludo!

:saludo:
Subir
#2 por st_louisblues el 18/02/2009
Muchas gracias man!
Subir
#3 por trino el 18/02/2009
Esta parte:

Alguien escribió:

-5-6---7-----8--------------------------------------
-----5---6-----7-----8------------------------------
-----------5-----6-----7-----8-----------------------
-------------------5-----6-----7-----8---------------
---------------------------5-----6-----7---8---------
-----------------------------------5-----6---7-8---


la aprendí hace unas semanas viendo un ejercicio de Justin Sandercoe, y la verdad que (si bien mi dejadez y falta de disciplina impide que estos ejercicios me reporten beneficios) es un muy buen ejercicio. Al principio cuesta un poco, pero es de esos ejercicios que al tocarlo por primera vez hacen sentir que son una buena ejercitación :ok:

Saludos :saludo:

PD: El ejercicio 2 puede ser un verdadero dolor de huevos al principio, creo que debería estar obligatoriamente en la lista de práctica de cualquier guitarrista que vaya de principiante a casi avanzado ;). Y el ejercicio 3, una vez que lo dominamos en esa posición, es bueno para practicar también en los primeros trastes de la guitarra.

http://www.guitarristas.info/foro/image.php?type=sigpic&userid=2357&dateli ne=1192016860

Subir
#4 por josetedos el 18/02/2009
gracias cferalva me gustan mucho sobre todo el tercero cuando termine de desartame los dedos continuo:D:D:D:aplausos:
Subir
#5 por cferalva el 19/02/2009
josetedos escribió:
gracias cferalva me gustan mucho sobre todo el tercero cuando termine de desartame los dedos continuo:D:D:D:aplausos:


bueno...en realidad los dedos no se cruzan nunca...solo van de arriba abajo sobre el mismo traste... :D

me alegro de que te guste

chau! :saludo:
Subir
#6 por EL_fREdY el 21/02/2009
ke bien!!! es muy buen ejercicio para principiantes!!!:ok:

GUTS, GLORY, GIRLS & GUITARS!!!

Subir
#7 por kraisth el 22/02/2009
Se agradecen los ejercicios, una pregunta. Mas o menos a cuanto es la distancia entre la pua y la cuerda?

Happy, happy... joy joy...

Subir
#8 por josep el 22/02/2009
El tercero lo encuentro fantástico, +1 :ok:

Visita mi Blog
http://musicoadictos.wordpress.com/

Subir
#9 por quequi el 25/02/2009
cferalva escribió:


Ejercicio 2
Se practica por pares de dedos como 3 y 4 (que joden más :) ) Ejemplo:

-----------------------------------------------------------------5---5-6-
-----------------------------------------------------5---5-6-5-6---6-----
-----------------------------------------5---5-6-5-6---6-----------------
-----------------------------5---5-6-5-6---6-----------------------------
-----------------5---5-6-5-6---6-----------------------------------------
-----5---5-6-5-6---6-----------------------------------------------------
-5-6---6-----------------------------------------------------------------



A mi guitarra le falta una cuerda para poder hacer ese ejercicio jaja:shock:

No en serio no es por fregar hay una cuerda de más te aviso para que lo arregles xD

PD: gracias por los ejercicios :saludo:
Subir
#10 por cferalva el 26/02/2009
es que así sirve tambien para los que tienen guitarras de 7 cuerdas...


Es lo que tiene el copiar-pegar.....que s te va la mano :D Pero ya no lo puedo editar. Gracias por el aviso de todas formas.
Subir
#11 por quequi el 26/02/2009
cferalva escribió:
es que así sirve tambien para los que tienen guitarras de 7 cuerdas...


aa eso lo explica todo :aplausos: me tendré que comprar una para poder hacerlo bien :oops:
Subir
#12 por pharaoh76 el 12/12/2009
mmm... te lo agradezco muchissiissisisisisimo

me sirvieron de mucho... chido
Subir
Respuesta rápida

Regístrate o para poder postear en este hilo