arañas para agilizar mano iquierda

#1 el 10/04/2009
Publicidad
filtro estos ejercicios para mejorar el movimiento de los dedos en los cambios de acorde. alprincipio puede costar mucho, pero en una docena de veces, notaras el cambio. independiza por lo visto a nivel cognitivo el movimiento de cada dedo, pues tienes los cuatro dedos en "acción" y debes discriminar uno sólo cada vez. hay unas reglas:

-a un dedo por traste y sin movernos del índice en el 5º traste

-no mueves ningún dedo hasta que le toque su turno

-por tanto, salvo al empezar, todos los dedos pulsan

-cada uno de los tres ejercicios lleva un orden concreto de digitación

-empieza por la sexta cuerda y al llegar a la primera cuerda esos mismos dedos vuelven a la tercera
--------2---------4-- 1
---1---------3------- 2
--------2---------4-- 3
---1---------3------- 4
--------2---------4-- 5
---1---------3------- 6
1 3 2 4

------------3----4--- 1
--1----2------------- 2
------------3----4--- 3
--1----2------------- 4
------------3----4--- 5
--1----2------------- 6
1 2 3 4

--------2----3------- 1
---1--------------4-- 2
--------2----3------- 3
---1--------------4-- 4
--------2----3------- 5
---1--------------4-- 6
1 3 4 2

---------------eso es todo, que os aproveche---------------
Subir
#2 el 10/04/2009
Gracias,tiene buena pinta, lo incorporo a mi rutina :ok:
Subir
#4 el 12/04/2009
no olvides practicar con metrónomo-salud.
Subir
#5 el 12/04/2009
si, siempre tengo presente practicar con metronomo...

el problema es que no tengo XD

http://www.facebook.com/BandaVoyyVuelvo
http://soundcloud.com/voyyvuelvo
http://www.youtube.com/bandavoyyvuelvo

http://www.chilemusicos.net/comunidad/sh...tid=132475

Subir
#6 el 12/04/2009
En esas formas se pueden aplicar las 24 variaciones de digitacion, mantengan la posicion que se menciona originalmente...

-----------------------------------------------------
La falta de talento se puede compensar con disciplina...

Subir
#7 el 12/04/2009
mi profesor me las enseño! dejo un ejercicio mas de este tipo

e-------------------------------------------2-----4--
B------------------------------2------4--------------
G------------------2-----4---------------1-----3-----
D------2-----4--------------1-----3------------------
A---------------1-----3------------------------------
E---1-----3------------------------------------------

hay un espacio de una cuerda entre uno y otro

quien esta peor, el que quiere vivir y no puede, el que no quiere vivir pero vive, o al que no se lo permite?

Subir
#8 el 13/04/2009
si mantienes pulsados los tres dedos restantes cuando avanzas uno, ¡ es muy parecido! si es así:¿te parece práctico? :ok::saludo: un saludo.
---------------------------------
no te entiendo :saludo: En esas formas se pueden aplicar las 24 variaciones de digitacion, mantengan la posicion que se menciona originalmente...
---------------------------------
pero me doy cuenta que no es lo mismo, porque después del 4 pasaría al 1 (un traste más agudo): en estos ejercicios NO ES POSIBLE hacer la forma que tú propones, al tener que cruzar; una vez establecidos los cuatro dedos en sus digitaciones correspondientes, por ejemplo al dedo índice delante de los otros tres dedos que están pulsando tres posiciones entre el traste del que parte y el traste que sueña con lograr alcanzar algún día......siii.....algún día...
en definitiva: creo que no estás lo ejecutando como explico arriba: la máxima en esencia es no dejar de pulsar las digitaciones hasta que le llegue a cada dedo el turno de cambiar, y el resto de dedos, está "digitando" expectante (llevandoelritmoconelmetrónomo) a ver si el compañero desempeña bien su papel....correspondiente: qué rollo!!
Es por eso seguramente por lo que nopuedan darse 24 digitaciones diferentes: el ejercicio es para "independizar discriminando" las órdenes que recibe cada dedo del "jefazo". Sería algo así como reconocer las voces de varias personas que suenan entre una multitud: pues más aún , no basta con saber que es fulanito, sino que hay que saber hasta el color de ropa interior de su mujer y su suegra (zszszsjjjjzshhh!!!!!) un saludo
Subir
#9 hace 2 semanas
muy interesante

freeman

Subir
Respuesta rápida
Identíficate o regístrate para poder responder en este hilo.