Duda sobre secuencia de acordes

#1 por El Hombre Sin Nombre el 30/04/2014
------------ ------------- ------------- --------------
------8------ ------8----- ------8----- ------7------
------10---- -----10----- -----10----- ------8------
------0------ ------9----- -------8----- ------6------
------------- ------------- ------------- -------------
------------- ------------- ------------- -------------

El otro día estuvimos en casa unos amigos y sacamos la secuencia de arriba mencionada. Era una especie de "jam" así que no le dimos mucha importancia, pero el caso es que cuando acabamos estuvimos mirando los modos a ver si cuadraba en alguno de ellos, pero en principio no. ¿Sabéis alguno alguno modo o derivado en el que la secuencia de arriba "encaje"?

Nire alde sei soka besterik ez.

Subir
#2 por El Hombre Sin Nombre el 30/04/2014
El último estaba mal, lo corrijo.

------------ ------------- ------------- --------------
------8------ ------8----- ------8----- ------8------
------10---- -----10----- -----10----- -----9------
------0------ ------9----- -------8----- ------7------
------------- ------------- ------------- -------------
------------- ------------- ------------- -------------

Nire alde sei soka besterik ez.

Subir
#3 por sohar el 30/04/2014
No pretendas encontrar un modo que encaje con todas las progresiones que se te ocurran. Lo que tienes que hacer es analizar los acordes y ver su funcion, y enfuncion de eso aprender qué escala o notas puedes usar.
Subir
Respuesta rápida

Regístrate o para poder postear en este hilo