diario de vanexxa

#1 por vanexxa el 28/01/2011
hola bueno voy a poner los ejercicios que sigo a diario para tod@s que lo quieran

1- empezamos con algo aburrido pero muy importante
el calentamiento de la mano.
e----------------------------------------------------1-2-3-4
b------------------------------------------2-3-4-5
g--------------------------------2-3-4-5
d----------------------3-4-5-6
a------------4-5-6-7
E--5-6-7-8

e----------------------------------------------------8-7-6-5
b------------------------------------------7-6-5-4
g--------------------------------6-5-4-3
d----------------------5-4-3-2
a------------5-4-3-2
E--4-3-2-1

*debemos alternar púa arriba y púa abajo

2- otro ejercicio alternando las cuerdas usando la pentatonica en la haciendo los 5 posiciones de la pentatonica

e-------------------------------------5-8---
b---------------------------5-8-------------
g-----------------5-7-----------5-7--------
d------5-7------------5-7------------------
a-----------5-7-----------------------------
E-5-8---------------------------------------

3- ejercicios de hammer y pull-of
usando la pentatonica en mi
10min

e----------------------------------------------------------------------------------------------------------------12-15P12-----12-----------------
b--------------------------------------------------------------------------------------12-15P12-----12H15--------------15-----15B(17)-----
g-------------------------------------------------------------12-14P12-----12H14------------14------------------------------------------
d------------------------------------12-14P12----12H14--------------14----------------------------------------------------------------------
a-----------12-14P12----12H14-------------14--------------------------------------------------------------------------------------------
E-12H15--------------15----------------------------------------------------------------------------------------------------------------------
H=hammer
P=pull-of
B=bending
---------------------------------
enter sadman
1894624d42243f33e40.jpg
1894624d42245cf1f02.jpg


Esquema de orden de riff

Parte 1 x12
Parte 2 – 3 - 4
Parte 5 x2
Parte 6 x2
Parte 7 x4
Parte 8 / Part 8
+++++++++
Parte 5 x2
Parte 6 x2
Parte 7 x4
Parte 8
Parte 5 x2
Parte 1
Parte 7
Parte 8
Parte 5 x2

espero que os valga

La paciencia es la virtud por la que soportamos con ánimo a los males y los avatares de la vida.

Subir
#2 por chele el 28/01/2011
Hey me parece perfecto que muestres tus practicas y procedimientos,ya que la gente puede tomar como guia estos ejercicios,seria bueno que los fueras ampliando,gracias.Saludos.
Subir
#3 por -willis- el 28/01/2011
vanexxa escribió:
hola bueno voy a poner los ejercicios que sigo a diario para tod@s que lo quieran

1- empezamos con algo aburrido pero muy importante
el calentamiento de la mano.
e----------------------------------------------------1-2-3-4
b------------------------------------------2-3-4-5
g--------------------------------2-3-4-5
d----------------------3-4-5-6
a------------4-5-6-7
E--5-6-7-8

e----------------------------------------------------8-7-6-5
b------------------------------------------7-6-5-4
g--------------------------------6-5-4-3
d----------------------5-4-3-2
a------------5-4-3-2
E--4-3-2-1

*debemos alternar púa arriba y púa abajo

2- otro ejercicio alternando las cuerdas usando la pentatonica en la haciendo los 5 posiciones de la pentatonica

e-------------------------------------5-8---
b---------------------------5-8-------------
g-----------------5-7-----------5-7--------
d------5-7------------5-7------------------
a-----------5-7-----------------------------
E-5-8---------------------------------------

3- ejercicios de hammer y pull-of
usando la pentatonica en mi
10min

e----------------------------------------------------------------------------------------------------------------12-15P12-----12-----------------
b--------------------------------------------------------------------------------------12-15P12-----12H15--------------15-----15B(17)-----
g-------------------------------------------------------------12-14P12-----12H14------------14------------------------------------------
d------------------------------------12-14P12----12H14--------------14----------------------------------------------------------------------
a-----------12-14P12----12H14-------------14--------------------------------------------------------------------------------------------
E-12H15--------------15----------------------------------------------------------------------------------------------------------------------
H=hammer
P=pull-of
B=bending
---------------------------------
enter sadman
http://files2.soniccdn.com/old/1894624d42243f33e40.jpg
http://files2.soniccdn.com/old/1894624d42245cf1f02.jpg


Esquema de orden de riff

Parte 1 x12
Parte 2 – 3 - 4
Parte 5 x2
Parte 6 x2
Parte 7 x4
Parte 8 / Part 8
+++++++++
Parte 5 x2
Parte 6 x2
Parte 7 x4
Parte 8
Parte 5 x2
Parte 1
Parte 7
Parte 8
Parte 5 x2

espero que os valga

Buenos ejercicios mañana posteare algunos muy buenos aqui aver si te sirven sale saludos :saludo:

Tengo 18 años me registre mal!!!

Subir
#4 por vanexxa el 28/01/2011
ok bienvenidos sean ;)

La paciencia es la virtud por la que soportamos con ánimo a los males y los avatares de la vida.

Subir
#5 por vanexxa el 29/01/2011
aqui subo ejercicios para los iniciados que van de semana en semana y hay para un mes

1894624d43584223142.jpg1894624d43584ed1f5b.jpg1894624d43585ccca75.jpg1894624d43587b63d2c.jpg1894624d4358a0f16c6.jpg1894624d4358b193477.jpg1894624d4358c1cc39c.jpg1894624d4358d1001c1.jpg
Archivos adjuntos:

La paciencia es la virtud por la que soportamos con ánimo a los males y los avatares de la vida.

Subir
#7 por vanexxa el 29/01/2011
aqui las baking de las siguientes semanas
Archivos adjuntos:

La paciencia es la virtud por la que soportamos con ánimo a los males y los avatares de la vida.

Subir
#8 por -willis- el 29/01/2011
vanexxa escribió:
aqui las baking de las siguientes semanas
aerobic guitar de troy nelson


Muchas gracias te habia mandado un MP XD

Tengo 18 años me registre mal!!!

Subir
#9 por Spinger el 29/01/2011
=D Interesante, espero los sigas subiendo y le heches ganas

= My Plug In Baby Crucifies My Enemies =

Subir
#10 por vanexxa el 03/02/2011
esto es lo que tengo para estos dias que hacer .
1894624d49faba532d2.jpg1894624d49fad137232.jpg
y pongo la baking del ejercicio
Archivos adjuntos:

La paciencia es la virtud por la que soportamos con ánimo a los males y los avatares de la vida.

Subir
#11 por vanexxa el 03/02/2011
1894624d4a01b410dc1.jpg
las canciones pueden ser a gusto de cada unos y cambiarlas según se aprendan pero repasarlas para no olvidar

La paciencia es la virtud por la que soportamos con ánimo a los males y los avatares de la vida.

Subir
Respuesta rápida

Regístrate o para poder postear en este hilo