ayuda con el solo de un tema u_u

#1 por sismica el 11/01/2012
hola alguien me puede escribir en tablatura el solo de pogo al corazon de la banda asspera??

ahora les dejo el link de la cancion!!

http://www.youtube.com/watch?v=7WD6VsP_JX8

desde ya muchas gracias!!!
Subir
#2 por N.C. el 14/01/2012
Yo justo grabé este cover

http://www.youtube.com/watch?v=kIykdHPddC0

Ahora lo transcribo y te lo pego acá
Subir
#3 por N.C. el 15/01/2012
Listo, ahora la subo a lacuerda.net igual.

Alguien escribió:
e|--------------15~-----15(b)16p13-----------------18~-------------------------------23----------------------------------
B|---16(b)18-----------------------------20(b)21-------------23(b)25---21------------------------------------------------
G|---------------------------------------------------------------------------------20------------------------------------------
D|------------------------------------------------------------------------------------------------------------------------------
A|------------------------------------------------------------------------------------------------------------------------------
E|------------------------------------------------------------------------------------------------------------------------------

e|----20(b)21--21p18/16---[16(b)18(b)16] x3----15(b)16----------------------------------------------------------------
B|-----------------------------------------------------------------16----------------------------------------------------------
G|-----------------------------------------------------------------------15----------------------------------------------20---
D|-----------------------------------------------------------------------------18--17-18-17-18/20--------20---------------
A|-------------------------------------------------------------------------------------------------------18--------18---------
E|------------------------------------------------------------------------------------------------------------------------------

e|----------------------------------------------------------------------------------------------------------------------------------11----
B|----------23-----------20(b)21--------------------------------------------------------------------------------------------------------
G|----------------20-----------------20----------------------------------------------------------------8~--10--8----10(b)12---------
D|---20------------------------------------20--18--------------------------------------------8--10------------------------------------
A|-------------------------------------------------------18/13/11/10/8/6/8-----------/10---------------------------------------------
E|-------------------------------------------------------------------------------11~-----------------------------------------------------


e|-------------------------------------------------------------------------------------------------------------------------------------
B|-------------------------------------------------------------------------------------------------------------------------------------
G|---10(b)12(br)10p8------------10p8------------------------------------------------------------8/10/12--12(b)13-10--10~--
D|------------------------10---8----------10--10p8----------------------------------/10~ /10------------------------------------
A|-------------------------------------------------------10-10p8/6/8/10/8--8~---------------------------------------------------
E|------------------------------------------------------------------------------------------------------------------------------------


e|------------------------------------------------------------------------------16-15~-16-18~------------------------------
B|-----------------------------------------------------------------15-16-18--------------------------------------------------
G|--------------------------/8/10/12--12(b)13--10/15---17---------------------------------------------------------------
D|--------------------/10-----------------------------------------------------------------------------------------------------
A|--------/6/8/10------------------------------------------------------------------------------------------------------------
E|---/8-----------------------------------------------------------------------------------------------------------------------

Subir
1
#4 por sismica el 16/01/2012
gracias,muchas gracias amigo un capo la verdad!! ya me pongo a sacarlo :D un abrazo grandee!!!
Subir
Respuesta rápida

Regístrate o para poder postear en este hilo