Tablaturas de Opera Magna

#1 por dragonslayer609 el 07/08/2010
Buenas he estado buscando como loco tablaturas sobre esta banda pero no hay nada.... no me puedo creer que esta pedazo de banda no tenga sus tabs en internet.... si alguien quiere ayudar a sacar alguna como "horizontes de gloria" o la "sangre del enemigo" o la nueva " el pozo y el pendulo" le estaria eternamente agradecido....

Defendamos lo que es nuestro! Tantas tabs y tan pocas de nuestra tierra.....:(

Jamas un guitarrista es mejor que otro, solo diferente.
---------------------------------------------------
Mi canal de Youtube

Subir
#2 por jumy el 08/08/2010
estoy contigo...he estado buscando y no he encontrado nada de este pedazo de grupo... a ver si nos echan una mano;)
Subir
#3 por dragonslayer609 el 08/08/2010
lo unico que he encontrado es esta introduccion de "un sueño en un sueño" del album "poe"



La afinacion es estandart....pero hay que fijarse bien para sacar los primeros punteos.... saludos

Aqui dejo una linea de la entrada que mas me gusta, jeje, creo que esta bien, por lo menos a mi me suena bastante bien..... a seguir!

-Esta parte es la que va desde el minuto 0:17 al 0:37.

E-----------------------------|------------------------------------
B--------------10-11----------|--------10-------11----13------15~--
G------/12~-----------7~------|---/12-----12~----------------------
D-----------------------------|------------------------------------
A-----------------------------|------------------------------------
E-----------------------------|------------------------------------

E-----------------------------------------------------------------
B---13---15----17~----18-17---------------------------------------
G-----------------------------19-----14~--------------------------
D-----------------------------------------------------------------
A-----------------------------------------------------------------
E-----------------------------------------------------------------

-----------------------------------------------------------------
--15----13-------------------------------------------------------
---------------15-----17~----15------12~------------------------ (X2)
-----------------------------------------------------------------
-----------------------------------------------------------------
-----------------------------------------------------------------

venga que entre todos sacamos la cancion.... ANIMAOS!

Jamas un guitarrista es mejor que otro, solo diferente.
---------------------------------------------------
Mi canal de Youtube

Subir
#4 por dragonslayer609 el 01/09/2010
venga, que esto merece la pena, aunque sea para sacar una cancion.

Jamas un guitarrista es mejor que otro, solo diferente.
---------------------------------------------------
Mi canal de Youtube

Subir
#5 por dragonslayer609 el 06/09/2010
up:saludo:

Jamas un guitarrista es mejor que otro, solo diferente.
---------------------------------------------------
Mi canal de Youtube

Subir
#6 por nicolasheumann el 24/09/2010
Estuve fijandome un poco en lo que tocaba en el video, y pudo ver esto... estas son las tabs que a mi parecer toco en el video.
1)-----------------------------------------------------------------
2)-----------------------------------------------------------------
3------------------------------------------------------------------
4)-11-10-8-7-0-5-3-0-12-13-10-12-8-10-12-10-8-7-5-4-4-
5)------------------------------------------------------------------
6)------------------------------------------------------------------

1)--------------------------------------------------------------------
2)--------------------------------------------------------------------
3)--------------------------------------------------------------------
4)-9-8-7-12-10-8-7-5-4-12-13-10-12-8-10-12-10-8-7-5-4-4-9-8-7-8-9-11-13-12
5)--------------------------------------------------------------------
6)--------------------------------------------------------------------

no estoy seguro de los dos "0" que hay, asique avisenme de su opinion.. Es lo mejor que pude hacer a oido.. me confundi un poco cuando lo copie aca, pero deberia estar correcto en su mayoria. Si no lo esta, porfavor comenten mas abajo para cambiarlo, y que nadie se lo aprenda de manera erronea. Muchas gracias y de nada
Subir
#7 por dragonslayer609 el 27/12/2010
venga, que ya queda menos...

Jamas un guitarrista es mejor que otro, solo diferente.
---------------------------------------------------
Mi canal de Youtube

Subir

HILOS SIMILARES

Respuesta rápida

Regístrate o para poder postear en este hilo