Solo november rain 3

#1 por karakachian el 14/11/2010
Hola me preguntaba que nivel de dificultad tiene este tema? porque no logro poder tocarlo a la velocidad debida que marca en guitar pro :S veo que en otros videos lo tocan un poco mas lento, pero mientras tanto en guitar pro aparece a una velocidad que no puedo agarrar.
Este solo es para intermedio/avanzado ?
ayuda porfavor.
Subir
#2 por migue21 el 14/11/2010
¿cuanto tiempo llevas? Yo lo veo principiante intermedio. Pasa la tablatura a ver si esta mal o algo.

Justin Bieber: "Dios me envió para hacer música"
Zakk Wylde: "No he enviado a nadie"

Subir
#3 por karakachian el 14/11/2010
aca esta y por si se ve mal, 911Tabs.Com - External Link
la verdad q le pone una velocidad q no llego, o sear q hace liado en algunos

|-20-19-20-22----15----15-16-15-16-15----15----15-16-15-16-15----------------15-------------------|
|-------------------16----------------18----18----------------18-16----16-18----18-16-18-15-16-18-|
|-------------------------------------------------------------------17----------------------------|
|-------------------------------------------------------------------------------------------------|
|-------------------------------------------------------------------------------------------------|
|-------------------------------------------------------------------------------------------------|


~~

|---------------------------------------------------20-19-20-22-15----15-16-15-16-15----15----------15-16-|
|-18-16-15-16-15b16r16----15-16-18-15-16-18-15---------------------16----------------18----15-16-18-------|
|----------------------17----------------------17---------------------------------------------------------|
|---------------------------------------------------------------------------------------------------------|
|---------------------------------------------------------------------------------------------------------|
|---------------------------------------------------------------------------------------------------------|



|-15-16-15-------15-------15-------------------------15-16-15-------15-------15----------------------------|
|----------18-16----16-18----18-16-18-16----15-16-18----------18-16----16-18----18-16----15-16-18-15----16-|
|----------------------------------------17-------------------------------------------17-------------17----|
|----------------------------------------------------------------------------------------------------------|
|----------------------------------------------------------------------------------------------------------|
|----------------------------------------------------------------------------------------------------------|


~~~~~

|------------------------------20-19-20-22-------------------------------------20b22-15-20-19-20-15-18-16-|
|-15------------------------------------------------------------------------------------------------------|
|----17-15-17-15-13-15-13------------------19-20-19-17-20-19-17-20-22-24-20-20----------------------------|
|-------------------------12------------------------------------------------------------------------------|
|---------------------------------------------------------------------------------------------------------|
|---------------------------------------------------------------------------------------------------------|



|-18-15-16-15----15-------15----15----15------20-19-20-22-20-19-20-15----15-16-15-16----15----15-18-20-|
|-------------18----16-18----16----16----16---------------------------16-------------18----18----------|
|------------------------------------------------------------------------------------------------------|
|------------------------------------------------------------------------------------------------------|
|------------------------------------------------------------------------------------------------------|
|------------------------------------------------------------------------------------------------------|



|-18-18-15----15---------------------------------------------20-19-20-22-20-19-20-15----15-16-20-19-20-|
|----------16----16------------------------------------------------------------------16----------------|
|-------------------17-15-17-17-15---------------------------------------------------------------------|
|----------------------------------17-16-15-15-13-15-13------------------------------------------------|
|-------------------------------------------------------15---------------------------------------------|
|------------------------------------------------------------------------------------------------------|



|-15----15-16-15----15----15-h15-16-18-h15-16-18-15-16-18-16-15----16-------------------------------15-15-16-|
|----16----------18----18---------------------------------------18----18-20-18-18-16----18-16-18-16----------|
|------------------------------------------------------------------------------------17----------------------|
|------------------------------------------------------------------------------------------------------------|
|------------------------------------------------------------------------------------------------------------|
|------------------------------------------------------------------------------------------------------------|


~~

|-15---------------20-19-20-22-20-19-20-15----15-16-15----------|
|----15-16-15-15---------------------------16----------18-15----|
|---------------------------------------------------------------|
|---------------------------------------------------------------|
|---------------------------------------------------------------|
|---------------------------------------------------------------|
---------------------------------
por cierto llevo tocando menos d 1 año.
Subir
#4 por migue21 el 14/11/2010
¿Tienes el guitar pro? El archivo me refiero. Creo que sería mas cómodo si lo pusieras. Si te cuesta no te preocupes, es práctica, lo difícil sera hacerlo limpio y con unos bends bien afinados y un vibrato sentido. Lo siento si has ido copiando la tab numerito con rayita a numerito con rayita, que es costoso.

Justin Bieber: "Dios me envió para hacer música"
Zakk Wylde: "No he enviado a nadie"

Subir
#5 por karakachian el 14/11/2010
listooo es ese el q veo yo, no se si usara ligados o q pero no puedo digitar a tal velocidad y en youtube no parece q usen tanta velocidad, estoy algo perdido
Subir
#6 por migue21 el 14/11/2010
Yo lo veo bien tendras que ensayarlo mas lento.

Justin Bieber: "Dios me envió para hacer música"
Zakk Wylde: "No he enviado a nadie"

Subir
#7 por karakachian el 14/11/2010
ok ok, es q va tan rapido q ni distingo la melodia jaja, tendre q poner practica, una pregunta mas, puntea todas las ntoas o mete algun ligado ? hablo del ultimo solo
Subir
#8 por migue21 el 14/11/2010
Creo que te cuela algún ligado, y si no hay no creo que haya inconveniente alguno si metes alguno haciéndolo bien.

P.D: Pon en el buscador del foro programa para practicar con canciones, o algo similar, rondan unos cuantos en los que puedes reducir la velocidad de la canción original (el archivo .mp3, wma. etc..).

Justin Bieber: "Dios me envió para hacer música"
Zakk Wylde: "No he enviado a nadie"

Subir
#9 por karakachian el 15/11/2010
ahi ya lo voy sacando poco a poco, lo q pasa es q tengo los dedos un toke anchos y es mi primera electrica, y se me complica en los ultimos trastes, vengo d tocar una acustica sin Corte
Subir
Respuesta rápida

Regístrate o para poder postear en este hilo