Solo "Agradecido" - Rosendo

#1 por rubiprojects el 08/01/2011
me he sacado la ritmica de la cancion, pero el solo no soy capaz, alguno se lo sabe o me puede ayudar.

muchas gracias

esta es la cancion
Subir
#2 por Pasando pantalla el 10/01/2011
Toca la pentatónica añadiéndole de vez en cuando la nota blues. Muévete por este patrón.
--------------------------------------------6--9-------
------------------------------------6--9---------------
--------------------------6--8--9----------------------
-------------------6--8--------------------------------
---------6--7--8---------------------------------------
--6--9-------------------------------------------------

Hacia el final, cuando toca las notas más agudas, toca este otro patrón en las 3 cuerdas más agudas.
------------------------------------------------------------11--13---
----------------------------------------------11--12--13------------
------------------------------------10--13---------------------------
--------------------------10--13-------------------------------------
------------11--13--14----------------------------------------------
--11--13-------------------------------------------------------------

http://www.guitarmonia.es/intervalos-musicales/intervalos-en-la-guitarra/
http://www.pianoaventura.com/documentos/curso_completo_de_teoria_de_la_musica.pdf
http://www.all-guitar-chords.com/guitar_scales.php
http://www.discoverguitaronline.com/

Subir
#3 por rubiprojects el 01/03/2011
muchas gracias, lo provare.

perdon por mirarlo tan tarde, me acabo de dar cuenta
Subir
Respuesta rápida

Regístrate o para poder postear en este hilo