Riff de paranoid.. ayuda!

#1 por screamxskuul el 08/12/2010
lo que sucede esque al tocar la primera parte de..
-----------------------------------------------
-----------------------------------------------
----------------------------7h9----------7h9-
7h9--7h9--7h9-----7h9---------7h9--------
7-----7-----7---------------------------------
-----------------------------------------------
La primera parte todo BIEN, pero en la otra parte de..
--------7h9-------7h9-
--7h9---------7h9-----

Me da un problema al cambiar ya que al pasar a la otra cuerda no para el sonido anterior :S, que debo hacer? en un video el tipo al tocar mantenia el indice intacto sin que sonara la otra cuerda al cambiar, como lo hace? no lo vi mutear ni nada..
Subir
--363703--
#2 por --363703-- el 11/12/2010
bueno este tema tiene algo de tiempo pero podrias mutear la cuerda anterior a la que estas tocando con el dedo anular de la mano izquierda (que no solo sirve para "señalar" xD)

Un saludo!
Subir
Respuesta rápida

Regístrate o para poder postear en este hilo