Oh! student and teacher affection

#1 por galo el 23/09/2008
Bueno pues me gustaria que me echaseis una mano y si me podeis pasar esta tablatura a guitar pro os lo agradeceria. Es muy cortita, la escribo aqui y pongo un link a youtube para que sepais como suena, gracias ;)






E
B-------------12--10--12
G ---9b11---------------
D
A
E



E
B
G ---9b11---r9--7--9---7--9
D
A
E



E
B
G
D--//11-----------12--p11---9
A
E



E
B
G
D--9---11---12------14--12--14
A
E



E
B-------------12--10--12
G ---9b11---------------
D
A
E



E
B
G ---9b11---r9--7--9---7--9
D
A
E



E
B
G
D--//11-----------12--p11---9
A
E



E
B
G
D--11----12--11--
A
E



E
B
G
D--7----11----9
A
E
Subir
#2 por galo el 04/10/2008
Nadie puede ayudarme?
Subir
Respuesta rápida

Regístrate o para poder postear en este hilo