Ejercicios: Barridos y arpegios

#25 por teahupoo el 19/03/2010
Dellun escribió:



Arpegios:

1.Arpegios Mayores


--------------5-9-9-5-------------
------------5---------5-----------
----------6-------------6---------
--------7-----------------7-------
----4-7---------------------7-4---
--5-----------------------------5-

--------------5-9-9-5-------------
----------------------------------
----------6-9---------9-6---------
--------7-----------------7-------
------7---------------------7-----
--5-9-------------------------9-5-

------------9-12-12-9------------------------------12-16-
---------10------------10-----------------------14--------
-------9------------------9------------------14-----------
----11----------------------11-----------14--------------
-12----------------------------12-12-16------------------
-----------------------------------------------------------

Para practicar poder hacer idas y vueltas para no ser tan monótonos.


2.Arpegios Menores:

------------8-12-12-8-------------------------12-17-17-12--------------
---------10-----------10--------------------13------------13------------
-------9-----------------9----------------14-----------------14---------
----10---------------------10----------14----------------------14-------
-12---------------------------12-12-15---------------------------15-12-
-------------------------------------------------------------------------


Bueno eso es todo, espero que les sirva lo suficiente para ganar alguna cosilla!!!! Un saludín a todos!!!


Buenas a todos. Quería pediros un favor, a ver si alguien me puede explicar la digitación correcta para tocar estos arpegios.

Gracias de antemano.
Subir
#26 por zekguitarx14 el 19/03/2010
Muchos me diran que me cai cuando naci xD, Pero que son los barridos y arpegios ?
No sean malos porque soi Intermedio i aun me falta mucho sobre teoria D:

Ojala me respondan :)
Zalu2

P.D. tus ejrcicios creo que me seran utiles pero para usarlos bien deberia saber exactamente que es lo que estoy practicando no crees O.O
Subir
#27 por eleazar2010 el 20/05/2010
son tecnicas para guitarra, es como tocar un acorde nada mas que tocando con nota individualmente... hacen sonar distinto las notas y las podes tocar mas rapido.. algo asi si alguien quiere dar una mejor respuesta no estaria mal xD voy para atras con teoria.
Subir
#28 por carlillo el 20/05/2010
post perfecto para empezar con sweeps. Voy a ponerme :P

“Hubiera preferido cantar blues en cualquier pequeño sitio lleno de humo en vez de pasarme las noches de mi vida escarbando en el lenguaje como una loca”

Subir
#29 por steve506 el 21/05/2010
ZekGuitarX14 escribió:
Muchos me diran que me cai cuando naci xD, Pero que son los barridos y arpegios ?
No sean malos porque soi Intermedio i aun me falta mucho sobre teoria D:

Ojala me respondan :)
Zalu2

P.D. tus ejrcicios creo que me seran utiles pero para usarlos bien deberia saber exactamente que es lo que estoy practicando no crees O.O


Un arpegio es igual a un acorde pero no se tocan las notas que lo componen al mismo tiempo sino una por una.

Sweep picking es una técnica que consiste en que al cambiar de cuerda tocas varias notas con un solo movimiento de la púa hacia arriba O hacia abajo...

Salud! :brindis:

No comparto tus ideas, pero moriría por defender tu derecho a expresarlas.

Subir
#30 por incarnated el 30/01/2011
Gracias por el aporte!
Subir
#31 por iorus el 06/02/2011
gracias y ahora a practicar XD

Tu Música toma el color de tu Alma ....

Subir
#32 por san88_la22 el 10/02/2011
me encanta hacer barridos !! :D eso si, en su momento me habia costado bastante aprenderlos..
voy a intentar encontrar mi cuaderno musical y escanear y subir los que realizaba yo !!

Guitarra-Total.Blogspot.com
Subir
#33 por gongora258 el 23/03/2011
excelente.......
Subir
#34 por usuario18 el 23/03/2011
benlly123 escribió:
pucha ami no me salen ...la pua se me va para el lado y se me mete entra las cuerdas


practica con metronomo,empieza muy lento y luego ve subiendo la velocidad,veras como todo te sonara mucho mas limpio
Subir
#35 por emillos el 23/03/2011
mi duda es cuando tenes q tocar por ejemplo
1----------8---
2-------6----
3------6-----
4---5--------

la cuarta cuerda con dedo 1 , la 3ra cuerda con dedo 2,
y la 2da cuerda ,tambien con dedo 2? o cambias de dedo para llegar mejor al 8.
Subir
#36 por memiink el 25/03/2011
Dellun escribió:
Bueno, aquí mi primera aportación a este foro que me parece magnífico.

Barridos:

1-Posición Mayor

1--------5-8-8-5----
2------6---------6---
3----5-------------5-

2-Posición mayor. Practicando de manera ascendente:

1-------5-8-----7-10--------10-13--------12-15-
2-----6-------8----------11------------13-------
3---5-------7---------10------------12----------

3.".Pracitando de manera descendente:

1---8-5-----10-7------13-10-------15-12-------
2-------6---------8----------11----------13----
3---------5---------7-----------10----------12-

4.Combinar Ascendente y descende y descendente y ascendente.


Arpegios:

1.Arpegios Mayores


--------------5-9-9-5-------------
------------5---------5-----------
----------6-------------6---------
--------7-----------------7-------
----4-7---------------------7-4---
--5-----------------------------5-

--------------5-9-9-5-------------
----------------------------------
----------6-9---------9-6---------
--------7-----------------7-------
------7---------------------7-----
--5-9-------------------------9-5-

------------9-12-12-9------------------------------12-16-
---------10------------10-----------------------14--------
-------9------------------9------------------14-----------
----11----------------------11-----------14--------------
-12----------------------------12-12-16------------------
-----------------------------------------------------------

Para practicar poder hacer idas y vueltas para no ser tan monótonos.


2.Arpegios Menores:

------------8-12-12-8-------------------------12-17-17-12--------------
---------10-----------10--------------------13------------13------------
-------9-----------------9----------------14-----------------14---------
----10---------------------10----------14----------------------14-------
-12---------------------------12-12-15---------------------------15-12-
-------------------------------------------------------------------------


Bueno eso es todo, espero que les sirva lo suficiente para ganar alguna cosilla!!!! Un saludín a todos!!!

que ayuda me has dado con esto, pero quisiera saber si tienes alguno de 4 cuerdas y no de 5 ya que el solo de a tout le monde lleva cuatro y el de 3 ya me sale bien pero quiero perfeccoinar el de 4

CORT X-6 RMS
PEAVEY VYPYR 30W
SANPERA 2
CORT ACTION - V

Subir
Respuesta rápida

Regístrate o para poder postear en este hilo