duda con sweep picking y mano derecha...

  • 1
#1 por Zanack el 06/06/2010
hola foro, tengo una duda acerca de como hacer barridos, es que me salto la duda de si debo ir muteando las cuerdas con mi mano derecha mientras voy tocando las cuerdas hacia abajo, por ejemplo si se toca algo como:

---------------17-13---------------------13-15-------
---------------------15---------------15-------------
------------------------14---------14----------------
---------------------------15---15-------------------
------------------------------17---------------------
------------------------------------------------------

del 17 de la 5ta cuerda ir muteando conforme se vayan tocando...
o este otro ejercicio:


--------12-17p-12----------12-15p-12-------
-----13-----------13----13-----------13-----
--14-----------------14-----------------14--
---------------------------------------------
---------------------------------------------
---------------------------------------------

significaría que despues de tocar el 14 pasar al 13 y con la mano derecha mutear el 14 y así.... esto sería para parar el ruido y que suene mas limpio el barrido o también se puede lograr un sonido limpio solo levantando mas suavemente los dedos de lla mano izquierda en las cuerdas???

lo que pasa es que hace un tiempo que llevo practicando barridos no uso metronomono porque se me hace dificil y aburrido usarlo :P pero trato de ir muy lento y avanzando un poco mas rapido cada vez.. pero no me suenan tan limpios como quisiera, o como eh visto algunos videos de internet o personas que eh visto por allí

como se debe hacer correctamente???

Ashesé

Subir
Baneado
#2 por demian hell el 06/06/2010
No debería seguir haciendo ruido.
Yo subí la velocidad del barrido de esta forma:
Hacía los barridos para abajo y la "vuelta", los así sin púa, o sea, pisando fuerte y que suene.
Pero los que son
----------------------14h17---------
-----------------15-----------------
------------14----------------------
--------16----------------------------
----17------------------------------
----------------------------------

Entonces, la vuelta, hago el pull off, y la vuelta sin púa, pisando fuerte. Probá


Click en la imagen para entrar

Subir
#3 por Greg el 06/06/2010
Aprovechando este topic para no abrir otro pregunto, como se toca este sweep??


Sweep picking
S S S S S S S S S S S S S S S S
--13---------------------------------13----------------------|
----------------13----------------13----13----13-------------|
-------------------14----------14----------14----14----14----|
----------------------15----15----------------------15----15-|
-------------------------15----------------------------------|
-------------------------------------------------------------|


S S S S S S S S S S S S S S S S
--17----------------------20p-17----17-------------|
-----18----------------18--------18----18----18----|
--------19----------19--------------------19----19-|
-----------19----19--------------------------------|
--------------17-----------------------------------|
---------------------------------------------------|


S S S S S S S S S S S S S S S S
--------------------------19p-15----15-------------|
--20-----------------------------17----17----17----|
-----21----------------21-----------------17----17-|
--------22----------22-----------------------------|
-----------22----22--------------------------------|
--------------20-----------------------------------|


|--3--| |--3--| |--3--| |--3--|
S S S S S S S S S S S S S S S S S S S S
--19----------------------------------------------------------|
-----20-------------------------------------------------------|
--------19-------------------------------------------------16-|
-----------21----------------------15-------15-17-15-17-19----|
--------------22-20-19-17-15-17-19----17-19-------------------|
--------------------------------------------------------------|
Subir
Baneado
#4 por demian hell el 06/06/2010
Greg74 escribió:
Aprovechando este topic para no abrir otro pregunto, como se toca este sweep??


Sweep picking
S S S S S S S S S S S S S S S S
--13---------------------------------13----------------------|
----------------13----------------13----13----13-------------|
-------------------14----------14----------14----14----14----|
----------------------15----15----------------------15----15-|
-------------------------15----------------------------------|
-------------------------------------------------------------|


S S S S S S S S S S S S S S S S
--17----------------------20p-17----17-------------|
-----18----------------18--------18----18----18----|
--------19----------19--------------------19----19-|
-----------19----19--------------------------------|
--------------17-----------------------------------|
---------------------------------------------------|


S S S S S S S S S S S S S S S S
--------------------------19p-15----15-------------|
--20-----------------------------17----17----17----|
-----21----------------21-----------------17----17-|
--------22----------22-----------------------------|
-----------22----22--------------------------------|
--------------20-----------------------------------|


|--3--| |--3--| |--3--| |--3--|
S S S S S S S S S S S S S S S S S S S S
--19----------------------------------------------------------|
-----20-------------------------------------------------------|
--------19-------------------------------------------------16-|
-----------21----------------------15-------15-17-15-17-19----|
--------------22-20-19-17-15-17-19----17-19-------------------|
--------------------------------------------------------------|


El primero es con nota pivot, eso seguro (dedo inmóvil)


Click en la imagen para entrar

Subir
#5 por Greg el 06/06/2010
Uhh bastante dificilongo, gracias
Subir
#6 por steve506 el 07/06/2010
este tipo de arpegios, una vez que se dominan las triadas en sus tres inversiones...no resultan tan complicados como parecen, pero pues como todo, requiere su rato de práctica...por supuesto el sweep lo que requiere principalmente es coordinacion y es bueno tomar en cuenta que la mano que hace todo el trabajo es la izquierda, la derecha solo se la pasa moviendose lentamente de arriba hacia abajo...entonces no es cuestion en sí de velocidad, sino de coordinacion...y eso se logra practicando esto muuuuy despacio.

En cuanto a la duda central del hilo, las cuerdas que se tapan son aquellas que ya se han tocado y van quedando "atrás"...ascendentemente, se tapan los graves con la mano derecha, ya sea con el canto de la mano o con la base del pulgar. Cuando desciendes el trabajo lo hace principalmente el dedo indice de la mano izquierda, aquello que algunos llaman "falsa cejilla."

Un saludo! :brindis:

No comparto tus ideas, pero moriría por defender tu derecho a expresarlas.

Subir
#7 por Zanack el 07/06/2010
steve506 escribió:
este tipo de arpegios, una vez que se dominan las triadas en sus tres inversiones...no resultan tan complicados como parecen, pero pues como todo, requiere su rato de práctica...por supuesto el sweep lo que requiere principalmente es coordinacion y es bueno tomar en cuenta que la mano que hace todo el trabajo es la izquierda, la derecha solo se la pasa moviendose lentamente de arriba hacia abajo...entonces no es cuestion en sí de velocidad, sino de coordinacion...y eso se logra practicando esto muuuuy despacio.

En cuanto a la duda central del hilo, las cuerdas que se tapan son aquellas que ya se han tocado y van quedando "atrás"...ascendentemente, se tapan los graves con la mano derecha, ya sea con el canto de la mano o con la base del pulgar. Cuando desciendes el trabajo lo hace principalmente el dedo indice de la mano izquierda, aquello que algunos llaman "falsa cejilla."

Un saludo! :brindis:


entonces significa que para el primer ejemplo que puse no se necesito mutear con la mano derecha ya que el barrido llega solo a la 3ra cuerda, en cambio en el 2do barrido debería mutear la 4ta y 5ta cuerda cuando descienda... es asi? :)

como nunca lo había echo se me hace muy dificil mutear las cuerdas grabes con la mano derecha ya que sin querer las muteo en el momento en que las toco y me suena un barrido muteado :|

Ashesé

Subir
#8 por steve506 el 07/06/2010
fernan2001 escribió:
entonces significa que para el primer ejemplo que puse no se necesito mutear con la mano derecha ya que el barrido llega solo a la 3ra cuerda, en cambio en el 2do barrido debería mutear la 4ta y 5ta cuerda cuando descienda... es asi? :)

como nunca lo había echo se me hace muy dificil mutear las cuerdas grabes con la mano derecha ya que sin querer las muteo en el momento en que las toco y me suena un barrido muteado :|


En el sweep el muting se aplica a las cuerdas que no usas, lo que SI tocas, para mi gusto, debe sonar abierto. En el caso de los sweepings en las 3 primeras cuerdas, el muting debe aplicarse sobre las cuerdas 4,5 y 6 toooodo el rato...además de que la mano derecha debe mutear la 3ra cuerda cuando pasas de 3ra a 2da y luego dejarla libre para cuando regresas. Esa es mi perspectiva técnica. Por supuesto hay mil maneras de hacerlo, pero yo en lo personal recomiendo esta, dado que me ha dado resultados.

salud! :brindis:

No comparto tus ideas, pero moriría por defender tu derecho a expresarlas.

Subir
Baneado
#9 por demian hell el 07/06/2010
steve506 escribió:
En el sweep el muting se aplica a las cuerdas que no usas, lo que SI tocas, para mi gusto, debe sonar abierto. En el caso de los sweepings en las 3 primeras cuerdas, el muting debe aplicarse sobre las cuerdas 4,5 y 6 toooodo el rato...además de que la mano derecha debe mutear la 3ra cuerda cuando pasas de 3ra a 2da y luego dejarla libre para cuando regresas. Esa es mi perspectiva técnica. Por supuesto hay mil maneras de hacerlo, pero yo en lo personal recomiendo esta, dado que me ha dado resultados.

salud! :brindis:


Es que el sweep picking es personal.
Hay gente que le gusta como suena completo, otras que no.


Click en la imagen para entrar

Subir
#10 por steve506 el 07/06/2010
Demian Hell escribió:
Es que el sweep picking es personal.
Hay gente que le gusta como suena completo, otras que no.


Completamente de acuerdo, hay muchos guitarristas que tocan el sweep muteado y les suena de putisima madre...yo en lo personal prefiero que las notas suenen un poco mas brillantes.

Un saludo!

No comparto tus ideas, pero moriría por defender tu derecho a expresarlas.

Subir
Baneado
#11 por demian hell el 07/06/2010
steve506 escribió:
Completamente de acuerdo, hay muchos guitarristas que tocan el sweep muteado y les suena de putisima madre...yo en lo personal prefiero que las notas suenen un poco mas brillantes.

Un saludo!


Yo también :D, pero le decía nada más para que no se quede con un sólo sonido, no era la intención corregirte ni mucho menos.
:)


Click en la imagen para entrar

Subir
#12 por Zanack el 08/06/2010
aa entonces es algo mas de gustos bueno mientras suene bien, entonces voy a ver como lo hago, muchas gracias por sus respuestas fueron de mucha ayuda :)

Ashesé

Subir
Respuesta rápida

Regístrate o para poder postear en este hilo