Digitacion "Estranged" Gn'R

#1 por parakantus el 22/07/2008
Buenas, se que será una pregunta muy facil para la mayoria pero yo no lo tengo nada claro; me gustaria saber la digitacion del solo de la cancion Estranged de Guns n' Roses;

------------------------------
-------13/15---------13-15
----12------------12--------
----12---------10-----------
-10--------------------------
------------------------------

Sobre todo, con que dedo conviene hacer el slide?

Gracias y un saludo
Subir
#2 por rafaziel el 25/07/2008
Buenas compañero, haber yo lo veo así:

------------------------------
-------13/15---------13-15
----12------------12--------
----12---------10-----------
-10--------------------------
------------------------------
1 3 4 4 1 2 3 4

10= 1

12=3
12=3

13/15= 4
10=1
12=2
13=3
15=4

Yo lo haría así pero claro eso es solo teniendo en cuenta que luego no tiene otra cosa y se te complique más con esta posición, por eso no te puedo decir si está bien o no porque como no se lo que viene luego.... en fin un saludo compañero
Subir
#3 por parakantus el 26/07/2008
Ok, muchisimas gracias!
Mas o menos lo veia parecido exceptuando la ultima parte;

12=3
13=4
15=4

Pero al no haber slide entre 13/15 asi queda mas limpio.
Un saludo
Subir
#4 por danny23 el 26/07/2008
yo la toco asi:
12=2
13=3
13=3
va a comodidades, a Slash lo he visto tocarlo como lo he descrito
:saludo:
Subir
Respuesta rápida

Regístrate o para poder postear en este hilo