Cómo haría para tocar esta parte? (Rata Blanca)

#1 por N.C. el 20/08/2011


3:35, deja el dedo índice en las dos cuerdas de abajo inmóvil?
Todavía no lo saqué, pero segun una web de tablaturas hace esto:

Alguien escribió:

-12-11-9-11-9----9---------------9-11-
--------------12---12-10-9-10-12------
--------------------------------------
--------------------------------------
--------------------------------------
--------------------------------------

-14-12-11-12-11----11----------------11-12-
----------------14----14-12-10-12-14-------
-------------------------------------------
-------------------------------------------
-------------------------------------------
-------------------------------------------

-16-14-12-14-12----12----------------12-14-
----------------16----16-14-12-14-16-------
-------------------------------------------
-------------------------------------------
-------------------------------------------
-------------------------------------------

-17-16-14-16-14------14-------------------14-16-
------------------17------17-16-14-16-17-------
-------------------------------------------
-------------------------------------------
-------------------------------------------
-------------------------------------------


http://lacuerda.net/tabs/r/rata_blanca/circulo_de_fuego-2.shtml
por si no se ve bien, está abajo
Subir
#2 por eLFarlopas el 20/08/2011
si te das cuenta, el traste 12 de la ultima cuerda es la misma nota que el traste 16 de la penultima, por lo tanto es la misma nota solo que tocada en las 2 cuerdas...
por lo que veo es una cancion bastante dificil...xD

Daniel Vazquez Suarez

Subir
#3 por N.C. el 20/08/2011
Es fácil TOOODA la canción salvo esa parte, y no sé si hay alguna manera más fácil para ejecutar esa parte salvo usar picking en todas las notas =( ligado se complica
Subir
#4 por N.C. el 21/08/2011
Es la única parte de la canción que me falta y sigue sin salirme
Subir
Respuesta rápida

Regístrate o para poder postear en este hilo