Tecnica de sweep picking desde cero

#1 por Martin el 17/11/2014
Hola, ando queriendo empezar a practicar esta tecnica q la he eestado mirado por internet y creo q consiste en el barrido de pua con la mano derecha, y con la mano izquierda tocar arpeggios digamos, no se si solo arpeggios pero bueno he visto q la mayoria lo hace... Y bueno buscando no he encontrado alguna buena manera de empezar a practicarla desde cero, ya q la mayoria de los q te enseña no me han comvencido la manera de aprenderlos... mi pregunta es como recomiendan ustedes que alguien como yo desde cero, empieze a practicar esta tecnica? es decir desde algo bien basico hasta ir avanzando asi no me frustro con un nivel q quiza no estoy a la altura de practicarlo sin pasar primero por algo basico... bueno es eso como recomiendan ustedes empezar a practicar esto e ir avanzando? muchas gracias..
Subir
#2 por Suey_Face-in-the-sand el 17/11/2014
Empieza con 2 cuerdas y ve sumandole

Asi hice yo:

-15p12------12h15p12------12h15p12....
------------13------------------13------------------.....
--------------------------------------------------------......
--------------------------------------------------------.....
--------------------------------------------------------....
--------------------------------------------------------.....


Después :

15p12------------------12h15p12-----------------...
------------13-------13------------------13------13--....
------------------12----------------------------12-------.....
--------------------------------------------------------------...
--------------------------------------------------------------...
--------------------------------------------------------------...


Después :
15p12----------------------------12h15p12------------
------------13-----------------13------------------13-------
------------------12------12---------------------------12-
-----------------------14-------------------------------------14
-------------------------------------------------------------------
-------------------------------------------------------------------


Y añadiendo notas en las cuerdas...eso es básico, cuando controles eso le vas metiendo cositas como nose, esto:

14p9----------------------------------9h14p9-
---------10------------------------10--------------
--------------11p9------9h11-------------------
-----------------------11----------------------------
-------------------------------------------------------
-------------------------------------------------------



Unos ligados mas por aquí...otros ppr el otro lado....no importa lo que hagas o inventes mientras que no se salga de ese acorde
Asi aprendí yo, espero haberte ayudado

the sands of time for me are running low.....

Subir
#3 por SixStrings el 17/11/2014
Lo que te ha dicho el compañero en el comentario #2 es bastante util, yo aprendi asi, de todas formas mira este articulo.http://www.guitarworld.com/big-strokes-beginners-guide-sweeping
Saludos y dale duro!
Subir
#4 por Martin el 18/11/2014
Muchas gracias por responderme... pero quiero que me quede algo claro a ver si me ayudan... Esta tecnica de para hacer arppegios consiste en meter acordes triadas y cuatriadas no? es decir, en el primer ej q me da Suey estaria pulsando las notas del acorde de Do mayor no? osea DO-SOL-MI y luego en el segundo ejemplo, pulso las mismas notas mas otro sol mas grave se diria?... En fin, lo q quiero q me quede claro es si esta tecnica de arppegios es para meter las notas de un acorde sea cual sea... gracias}
EDITO: oye six esas son figuras tmb q se podrian practicar??? van desde algo basico a mas avanzado?
Subir
#5 por Suey_Face-in-the-sand el 18/11/2014
Si es el mismo acorde, no puedes meter otra nota de fuera porquw simplemente no sonaria bien
Si en el tercer ejemplo en la cuarta cuerda, en vez de meter em el traste 14 tocas en el 15, eso ya va a sonar a mierda xD tienes qe respetar eso solamente.
De todos formas seguro qe hay compañeros qe sepam de teoría musical para responderte a eso, yo aprendi a tocar por mi mismo y no se absolutamente nada de teoría, solo se coger la guitarra y tocar, nisiquiera se los acordes xDD

En cuanto al edit y la pregunta que hiciste no lo entendí muy bien :(

Edit: miré en wiki y vi algo como lo qe dijiste, no se si tr servirá
La técnica se usa casi exclusivamente para arpegios, siendo bastante común el formato de tríadas en una o dos octavas o, en términos de escala, la primera (o tónica), tercera (o media) y quinta (o dominante) de una escala, repetida dos veces con una tónica adicional en el punto más agudo. Por ejemplo, una tríada de La menor (Am) sería la-do-mi-la-do-mi-la (A-C-E-A-C-E-A). Cuando esa secuencia de notas se toca con rapidez en sentido ascendente y descendente, como un arpegio, su sonoridad es notablemente clásica.

the sands of time for me are running low.....

Subir
#6 por SixStrings el 18/11/2014
Principalmente es para tocar arpeggios, aunque como se puede ver en el enlace que te he pasado se puede usar con la pentatonica tambien, es que si te das cuenta cuando tocas algo con economy picking, estas haciendo un minisweep picking entre dos cuerdas..
Subir
#7 por Martin el 18/11/2014
Ok gracias por responderme solo una duda mas... la tecnica con la mano derecha es como para bajar o subir es dejar superponer la pua a la siguiente cuerda nO? es decir como rasguear cuerda por cuerda pero q se note por separado las notas nO?...
Subir
#8 por Suey_Face-in-the-sand el 18/11/2014
Si y eso se consigue con la mano izquierda
Con la derecha solo tienes qe mover de arriba a abajo

Con los dedos de la izquierda tienes que ir pulsando y levantando de manera que cuando cambies de cuerda, la nota anterior se haya apagado

the sands of time for me are running low.....

Subir
#9 por Suey_Face-in-the-sand el 18/11/2014
Wikipedia:
La mano, por tanto, toma la misma posición que para un acorde, pero cada dedo pisa primero la cuerda para producir el sonido y después, con un rápido y leve movimiento, silencia la nota, permaneciendo en contacto con la cuerda, mientras el dedo que va a pisar la cuerda siguiente comienza ya a descender.

the sands of time for me are running low.....

Subir
#10 por Martin el 20/11/2014
aah!... con ese detalle veo q es complicada la tecnica... mira vos gracias por decirme ese detalle Suey si lo pasaba por alto quiza lo aprendia mal... muchas gracias por ayudarme! escribire alguna nueva duda si me surge... gracias
Subir
Respuesta rápida

Regístrate o para poder postear en este hilo