Tabs sencillas para guitarra eléctrica

#1 el 12/09/2010
Publicidad
Bueno, creo este tema, para que pongamos tablaturas sencillas, y que sean de ayuda para los que están empezando. No he encontrado ningún tema completo que tenga muchas tablaturas para principiantes, asi que, aver si hacemos que este tema sea una gran ayuda para todos, y recopilemos las mejores tablaturas fáciles. Empiezo yo:

Los Simpsons

1|-----0-2--5-3---0------------------------------------------------------||
2|--1----------------1---------------------------------------------------||
3|----------------------2-----------1------------1------------------------||
4|---------------------------4-4-4-----4-4-4-4--------------------------||
5|--------------------------------------------------1-1-1-2--------------||
6|-----------------------------------------------------------------------||

Linkin Park - In The End

1|-------------------------------------||
2|-------------------------------------||
3|-----3--3---------------------------||
4|--1-------4--3--3--3--3-4-1--------|| (X3)
5|------------------------------------||
6|------------------------------------||

Smoke on the Water - Deep Purple

E----------------------------------------------------------
B----------------------------------------------------------
G------3------5-------------3-----6-----5----------3--5
D--5---3------5-------5----3-----6-----5-----5----3--5-
A--5-------------------5------------------------5-----------
E----------------------------------------------------------

E---------------
B---------------
G--3------------
D--3------5----- (X5)
A----------5-----
E---------------



Poned vosotros las vuestras! ;)
Subir
#2 el 12/09/2010
bua... yo las subo desde guitar pro jaja mas sencillo para mi gusto xD. Bueno luego miro haber si suvo algo, por cierto buen post.
Subir
#3 el 12/09/2010
netrox escribió:
bua... yo las subo desde guitar pro jaja mas sencillo para mi gusto xD. Bueno luego miro haber si suvo algo, por cierto buen post.


Gracias ;)
Subir
#4 el 12/09/2010
sorry por no poner aun nada... tengo el ordenador en el que tengo guitar pro y todo lo de ordenador en el ahora estoy con un portatil pequeñito de esos xd, haber si se anima mas gente y postea cosas
---------------------------------
pongo unos cuantos sacaqdos de internet... no son hechos por mi.



CALIFORNICATION - RED HOT CHILI PEPPERS

1|-----------------------------------|----------------------------------||
2|---------0--1----------------------|---------0--1---------------------||
3|-------------------------0---2-----|-----------------------0---2------||
4|-----2-----------------------------|------2---------------------------||
5|--0------------------3-------------|---0----------------3-------------||
6|-----------------1-----------------|-----------------1----------------||


METALLICA - THE UNFORGIVEN

1|--------------------------------------------------|----------------------------------|
2|--------------------------------------------------|----------------------------------|
3|--2-4-5--5-4-2---2-4-5--5-2--(x2)|--2-4-5--4s5--5-5-4----4----2-4-2-|
4|--------------------------------------------------|--------------------5----2--------|
5|--------------------------------------------------|----------------------------------|
6|--------------------------------------------------|----------------------------------|

|-------------------------------------------||
|---------5-5-3------------------------------||
|--2-4-5--------4---4-1--4-1-2-4-2------||
|---------------------------------------------||
|---------------------------------------------||
|---------------------------------------------||

* S = significa arrastar el dedo de un trastre al otro, sin que se pierda el sonido, en este caso del traste 4 al 5.


JUDAS PRIEST - BREAKING THE LAW


1|----------------------------------------------------------||
2|----------------------------------------------------------||
3|----------------------------------------------------------||
4|----------------------------------------------------------||
5|--0--2--3--0-2-3-0-2-3------0-----0----3-2------||(X2)
6|------------------------------1-3---1-3----3----------||



SIMON & GARFUNKELSIRVE MUCHO COMO EJERCITACION


1|-----0---0-----0---0------0---0----0---0------||
2|-------0----1----0----------0----1---0----------||
3|--2--------------------2-------------------------||
4|--------------------------------------------------||
5|--------------------------------------------------||
6|--------------------------------------------------||


AC/DC - HIGHWAY TO HELL


1|---------------------------------------------------------------------||
2|-----------------3--3--3----3--3--3---3--3--3------------------||
3|---2--2--2-----2--2--0----2--2--0---2--2--0---2--2---------||
4|---2--2--2-----0--0--0----0--0--0---0--0--0---2--2---------||
5|---0--0--0-----X--X--X----X--X--X---X--X--X---0--0---------||
6|-----------------2--2--2----2--2--2---2--2--2------------------||

* X = que no suene, lo que pueden hacer es taparla con el dedo que toca la sexta cuerda


THE FINAL COUNTDOWN - EUROPE


1|--9-7-9------10-9-10--9--7----10-9-10-------7----7---------7------------
2|------------7-----------------------------------7-------10--10--9------10----
3|---------------------------------------------------------------------------
4|---------------------------------------------------------------------------
5|---------------------------------------------------------------------------
6|---------------------------------------------------------------------------

|---9-7-9------10-9-10--9---7-----10-9-10--------7----7-------7-----------
|----------7-----------------------------------------7-----10---10--9----10-------
|-------------------------------------------------------------------------
|-------------------------------------------------------------------------
|-------------------------------------------------------------------------
|-------------------------------------------------------------------------

|------------7---------7--9--7--------------10--9v----9--10---9-7--9-----||
|---9-10-------10--------------10--9--7----------------------------------||
|--------------------------------------------------------------------------------||
|--------------------------------------------------------------------------------||
|--------------------------------------------------------------------------------||
|--------------------------------------------------------------------------------||

* V = hacer vibrar la cuerda


THE MAN WHO SOLD THE WORLD - NIRVANA


1|-------------------------------------------------||
2|-------------------------------------------------||
3|--2--2--2--0----2-3-2--0--(x4)---2---------||
4|-------------------------------------------------||
5|-------------------------------------------------||
6|-------------------------------------------------||


LINKIN PARK - IN THE END


1|----------------------------------------||
2|----------------------------------------||
3|-----3--3-----------------------------||
4|--1-------4--3--3--3--3-4-1--------||(todoX3)
5|----------------------------------------||
6|----------------------------------------||


VAIN GLORY OPERA - EDGUY


1|------------------------8-------------------------------8---------------------------
2|--8---10-11-10-11---11-10--8--6---8---10-11-10-11---11-10--8--10---6----------
3|------------------------------------------------------------------------------------
4|------------------------------------------------------------------------------------
5|------------------------------------------------------------------------------------
6|------------------------------------------------------------------------------------

|-------------------------------------------------------------------------------||
|---8--10--6--8--10--11--10--8--6--15---16---13---11--10---8------||(todo x3)
|-------------------------------------------------------------------------------||
|-------------------------------------------------------------------------------||
|-------------------------------------------------------------------------------||
|-------------------------------------------------------------------------------||


LA ARGENTINIDAD AL PALO - BERSUIT VERGARABAT


1|--------------------------------------------------------------------------------------------------||
2|--------------------------------------------------------------------------------------------------||
3|--------------------------------------------------------------------------------------------------||
4|--------------------------------------------------------------------------------------------------||
5|------0-22-0-22-0-22-----0-22-0-22-0-22---0-22-0-22-0-22-1----111-444-5-4-2-||(X2)
6|--2-------------------------2----------------------3----------------------------------------------||


BEAT IT - MICHAEL JACKSON


1|-------------------------------------------------||
2|-------------------------------------------------||
3|----------0-----------------------0---------------||
4|------------2--4--2-0--0----------2--4--2--0-----||(todo x cuantas veces quieran )
5|--------2-----------------------2-----------------||
6|--0--3--------------------0--3-------------------||


EIRC CLAPRON, WONDERFUL TONIGHT CLASICA


1-------------------------------------------------------------------------------||
2---10b---8--10-----10b--8-------10b--8--10--12--13--17--15-------||
3----------------------------------9--------------------------------------------||
4-------------------------------------------------------------------------------||
5-------------------------------------------------------------------------------||
6-------------------------------------------------------------------------------||
Subir
#5 el 12/09/2010
netrox escribió:
sorry por no poner aun nada... tengo el ordenador en el que tengo guitar pro y todo lo de ordenador en el ahora estoy con un portatil pequeñito de esos xd, haber si se anima mas gente y postea cosas
---------------------------------
pongo unos cuantos sacaqdos de internet... no son hechos por mi.



CALIFORNICATION - RED HOT CHILI PEPPERS

1|-----------------------------------|----------------------------------||
2|---------0--1----------------------|---------0--1---------------------||
3|-------------------------0---2-----|-----------------------0---2------||
4|-----2-----------------------------|------2---------------------------||
5|--0------------------3-------------|---0----------------3-------------||
6|-----------------1-----------------|-----------------1----------------||


METALLICA - THE UNFORGIVEN

1|--------------------------------------------------|----------------------------------|
2|--------------------------------------------------|----------------------------------|
3|--2-4-5--5-4-2---2-4-5--5-2--(x2)|--2-4-5--4s5--5-5-4----4----2-4-2-|
4|--------------------------------------------------|--------------------5----2--------|
5|--------------------------------------------------|----------------------------------|
6|--------------------------------------------------|----------------------------------|

|-------------------------------------------||
|---------5-5-3------------------------------||
|--2-4-5--------4---4-1--4-1-2-4-2------||
|---------------------------------------------||
|---------------------------------------------||
|---------------------------------------------||

* S = significa arrastar el dedo de un trastre al otro, sin que se pierda el sonido, en este caso del traste 4 al 5.


JUDAS PRIEST - BREAKING THE LAW


1|----------------------------------------------------------||
2|----------------------------------------------------------||
3|----------------------------------------------------------||
4|----------------------------------------------------------||
5|--0--2--3--0-2-3-0-2-3------0-----0----3-2------||(X2)
6|------------------------------1-3---1-3----3----------||



SIMON & GARFUNKELSIRVE MUCHO COMO EJERCITACION


1|-----0---0-----0---0------0---0----0---0------||
2|-------0----1----0----------0----1---0----------||
3|--2--------------------2-------------------------||
4|--------------------------------------------------||
5|--------------------------------------------------||
6|--------------------------------------------------||


AC/DC - HIGHWAY TO HELL


1|---------------------------------------------------------------------||
2|-----------------3--3--3----3--3--3---3--3--3------------------||
3|---2--2--2-----2--2--0----2--2--0---2--2--0---2--2---------||
4|---2--2--2-----0--0--0----0--0--0---0--0--0---2--2---------||
5|---0--0--0-----X--X--X----X--X--X---X--X--X---0--0---------||
6|-----------------2--2--2----2--2--2---2--2--2------------------||

* X = que no suene, lo que pueden hacer es taparla con el dedo que toca la sexta cuerda


THE FINAL COUNTDOWN - EUROPE


1|--9-7-9------10-9-10--9--7----10-9-10-------7----7---------7------------
2|------------7-----------------------------------7-------10--10--9------10----
3|---------------------------------------------------------------------------
4|---------------------------------------------------------------------------
5|---------------------------------------------------------------------------
6|---------------------------------------------------------------------------

|---9-7-9------10-9-10--9---7-----10-9-10--------7----7-------7-----------
|----------7-----------------------------------------7-----10---10--9----10-------
|-------------------------------------------------------------------------
|-------------------------------------------------------------------------
|-------------------------------------------------------------------------
|-------------------------------------------------------------------------

|------------7---------7--9--7--------------10--9v----9--10---9-7--9-----||
|---9-10-------10--------------10--9--7----------------------------------||
|--------------------------------------------------------------------------------||
|--------------------------------------------------------------------------------||
|--------------------------------------------------------------------------------||
|--------------------------------------------------------------------------------||

* V = hacer vibrar la cuerda


THE MAN WHO SOLD THE WORLD - NIRVANA


1|-------------------------------------------------||
2|-------------------------------------------------||
3|--2--2--2--0----2-3-2--0--(x4)---2---------||
4|-------------------------------------------------||
5|-------------------------------------------------||
6|-------------------------------------------------||


LINKIN PARK - IN THE END


1|----------------------------------------||
2|----------------------------------------||
3|-----3--3-----------------------------||
4|--1-------4--3--3--3--3-4-1--------||(todoX3)
5|----------------------------------------||
6|----------------------------------------||


VAIN GLORY OPERA - EDGUY


1|------------------------8-------------------------------8---------------------------
2|--8---10-11-10-11---11-10--8--6---8---10-11-10-11---11-10--8--10---6----------
3|------------------------------------------------------------------------------------
4|------------------------------------------------------------------------------------
5|------------------------------------------------------------------------------------
6|------------------------------------------------------------------------------------

|-------------------------------------------------------------------------------||
|---8--10--6--8--10--11--10--8--6--15---16---13---11--10---8------||(todo x3)
|-------------------------------------------------------------------------------||
|-------------------------------------------------------------------------------||
|-------------------------------------------------------------------------------||
|-------------------------------------------------------------------------------||


LA ARGENTINIDAD AL PALO - BERSUIT VERGARABAT


1|--------------------------------------------------------------------------------------------------||
2|--------------------------------------------------------------------------------------------------||
3|--------------------------------------------------------------------------------------------------||
4|--------------------------------------------------------------------------------------------------||
5|------0-22-0-22-0-22-----0-22-0-22-0-22---0-22-0-22-0-22-1----111-444-5-4-2-||(X2)
6|--2-------------------------2----------------------3----------------------------------------------||


BEAT IT - MICHAEL JACKSON


1|-------------------------------------------------||
2|-------------------------------------------------||
3|----------0-----------------------0---------------||
4|------------2--4--2-0--0----------2--4--2--0-----||(todo x cuantas veces quieran )
5|--------2-----------------------2-----------------||
6|--0--3--------------------0--3-------------------||


EIRC CLAPRON, WONDERFUL TONIGHT CLASICA


1-------------------------------------------------------------------------------||
2---10b---8--10-----10b--8-------10b--8--10--12--13--17--15-------||
3----------------------------------9--------------------------------------------||
4-------------------------------------------------------------------------------||
5-------------------------------------------------------------------------------||
6-------------------------------------------------------------------------------||


Fantastico!! +1 de reputacion jaja Muy bueno en serio :brindis:
Subir
#6 el 12/09/2010
denada hombre... haber si se apunta ams gente que estas cosas son faciles de conseguir ademas hay gente que sabe algunas y asi peudes ayudar a los que empiezan.
Subir
#7 el 13/09/2010
SUNSHINE OF YOUR LOVE de Cream
1:
e-------------------------------------------------
B-------------------------------------------------
G-------------------------------------------------
D------12--12---10---12---------------------------
A----------------------------12--11--10------b8-------
E-------------------------------------------10------10---
2:
e-------------------------------------------------
B-------------------------------------------------
G------12--12---10---12---------------------------
D----------------------------12--11--10------b8-------
A-------------------------------------------10------10---
E-------------------------------------------------

Allegro - Ludwig Van Beethoven

||-0--0--1--3-|-3--1--0-----|----------0-|-0----------||
||------------|-------------3-|-1--1--3----|------3-----||
||------------|-----------------|------------|------------||
||------------|-----------------|------------|------------||
||------------|-----------------|------------|------------||
||------------|-----------------|------------|------------||


||-0--0--1--3-|-3--1--0-----|----------0-|------------||
||------------|------------3-|-1--1--3----|-3----1-----||
||------------|----------------|------------|------------||
||------------|----------------|------------|------------||
||------------|----------------|------------|------------||
||------------|----------------|------------|------------||


||-----0—-----|-0-1--0------|-0-1—0------|------------||
||-3-----1--3-|---------1--3-|-----------3--|1—3-------||
||--------------|--------------|---------------|---------0-||
||--------------|--------------|---------------|------------||
||--------------|--------------|---------------|------------||
||--------------|--------------|---------------|------------||


||-0—-0—-1—-3-|-3--1--0---|----------0-|------------||
||-----------------|------------3|-1--1--3----|-3---1-----||
||-----------------|-------------|------------|------------||
||-----------------|-------------|------------|------------||
||-----------------|-------------|------------|------------||
||-----------------|-------------|------------|------------||

Gun's and roses - Sweet Child o' mine (intro)

|-----------------15-----14------|----------------15------14-----|
|----15---------------------------|----15--------------------------|
|--------14-12------14-----14-|--------14-12------14------14-|
|-12-----------------------------|-12-----------------------------|
|---------------------------------|---------------------------------|
|---------------------------------|---------------------------------|

|-----------------15-----14------|----------------15------14-----|
|----15---------------------------|----15--------------------------|
|--------14-12------14-----14-|--------14-12------14------14-|
|-12-----------------------------|-12-----------------------------|
|---------------------------------|---------------------------------|
|---------------------------------|---------------------------------|

|-----------------15-----14------|----------------15------14-----|
|----15---------------------------|----15--------------------------|
|--------14-12------14-----14-|--------14-12------14------14-|
|-12-----------------------------|-12-----------------------------|
|---------------------------------|---------------------------------|
|---------------------------------|---------------------------------|

|-----------------15-----14------|----------------15------14-----|
|----15---------------------------|----15--------------------------|
|--------14-12------14-----14-|--------14-12------14------14-|
|-12-----------------------------|-12-----------------------------|
|---------------------------------|---------------------------------|
|---------------------------------|---------------------------------|

Nirvana - Smells like teen spirit (intro, y se repite durante casi toda la cancion)

e|----------------------|----------------------|
B|----------------------|----------------------|
G|-----------------3-3-|----------------6-6-|
D|-3--3-3-xxxx-3-3-|-6--6-6-xxxx-6-6-|
A|-3--3-3-xxxx-1-1-|-6--6-6-xxxx-4-4-|
E|-1--1-1-xxxx------|-4--4-4-xxxx------|
Subir
#8 el 13/09/2010
Metallica- One

E|---------------------------------------------------------------------------
B|---------------------------------------------------------------------------
G|------------------------------------------------------------------------0--
D|----4-----0----------4-----0------------4-----0-----------4-----0---------
A|-2-----2------------------------------2-----2------------------------------
E|-------------------3-----3------------------------------3-----3------------

E----------------------------------------------------------------------
B----------------------------------------------------------------------
G----------------------------------------------------------------------
D----4------0--------4-----0--------4-----0--------------------------
A-2-----2---------0-----0-----------------------------2-----2---------
E----------------------------------------3-----3-----------0-----2-----

Saludos y poned mas :D Aver si recopilamos unas buenas tabs faciles para los que empiezan (como yo jaja)
Subir
#9 el 13/09/2010
asi algunas algo mas conocidas ee jaja

Cumpleaños Feliz o El payaso plin-plin (es la misma cancion con distinta letra.

Mi - E||------------------------1----0----------------------------3----1----|
Si - B||--1----1----3------1----------------1----1----3------1--------------|
Sol- G||--------------------------------------------------------------------|
Re - D||--------------------------------------------------------------------|
La - A||--------------------------------------------------------------------|
Mi - E||--------------------------------------------------------------------|

------------8------5----1----1------0---------------6----6----5----|
--1----1---------------------------------3-------------------------|
-------------------------------------------------------------------|
-------------------------------------------------------------------|
-------------------------------------------------------------------|
-------------------------------------------------------------------|

--1----3-----------1-------||
---------------------------||
---------------------------||
---------------------------||
---------------------------||
---------------------------||

Estrellita

MI - E-------------0-0--------------------------------
SI - B--------3-3-------3--------1-1--0-0-------------
SOL-G-0-0------------------------------------2-2--0----
RE - D----------------------------------------------
LA - A----------------------------------------------
MI - E----------------------------------------------

----------------------------------------------
--3-3--1-1--0-0-------3-3--1-1--0-0-----------
---------------------2----------------------2--------
----------------------------------------------
----------------------------------------------
----------------------------------------------

-----------0-0--------------------------------
------3-3-------3--------1-1--0-0-------------
-0-0--------------------------------2-2--0----
----------------------------------------------
----------------------------------------------
----------------------------------------------

La cucaracha

MI - E-----------1-5-----------1-5--1-1-0-0-----------------------
SI - B--1-1-1------1-1-1----------------------3-3-1-----------------
SOL- G------------------------------------------------------
RE - D------------------------------------------------------
LA - A------------------------------------------------------
MI - E------------------------------------------------------


--------0-3------------0-3--8-10-8-6-5-3-1----------------
--1-1-1------1-1-1------------------------------------
------------------------------------------------------
------------------------------------------------------
------------------------------------------------------
------------------------------------------------------


------1-1-5-5-8-5--8-10-8-6-5-8-6-3-------------------
--1-1-------------------------------------------------
------------------------------------------------------
------------------------------------------------------
------------------------------------------------------
------------------------------------------------------


------0-0-3-3-6-3--8-10-8-6-5-3-1---------------------
--1-1-------------------------------------------------
------------------------------------------------------
------------------------------------------------------
------------------------------------------------------
------------------------------------------------------


y bueno esta ya me gusta mas xD

Come as you are - Nirvana

MI - E------------------------------------------------------
SI - B------------------------------------------------------
SOL- G------------------------------------------------------
RE - D------------------------------------------------------
LA - A------------0---0----------2------2-----------------------
Mi - E--0-0-1-2---2---2-2-1-0---0-0-------------------------

haber si encuentro mas
Subir
#10 el 13/09/2010
AC/DC - Hard as a Rock
Gtr. 1 Mainlick 3 Times B5 B5 B5
| B5 E/B _ _ _ | B5 E/B _ E/B _
e|-2-4-||-5--4-2-0-2-4-2 2--4-0 0--4-2 2--2-4-||5--4-2-0-2-4-2 2--4-0-0--4-2 2|
b|-0-0-||-0--0-0-0-0-0-0-0--0-0-0--0-0-0--0-0-||0--0-0-0-0-0-0-0--0-0-0--0-0-0|
g|-----||*-----------------------------------*||------------------------------|
D|-----||*-----------------------------------*||------------------------------|
A|-----||-------------------------------------||------------------------------|
E|-----||-------------------------------------||------------------------------|
Gtr. 2 w/Gtr. 1 Pattern 1
e||---------------------------------------||---------------|
b||---------------------------------------||---------------|
g||*------4------1-----4-4----1-1----4-4-*||-1-4--4--4--4--| 4 Times
D||*------4------2-----4-4----2-2----4-4-*||-2-4--4--4--4--|
A||-------2------2-----2-2----2-2----2-2--||-2-2--2--2--2--|
E||--------------0------------0-0---------||-0-------------|


NOTHING ELSE MATTERS

PARTE 1º

|-------0------| |-------0---7-|-7-----7h0-----|-----7--8--7h8h7/5--7-5/2---|-------2h0-----|------0---|
|-----0---0----| |-----0---0---|---0---0---0---|-0---0--0-----------0-----5-|-5---5-----5---|----5-----|
|---0-------0--| |---0---------|-----0-------0-|---0------------------------|---5---------5-|---5------|
|--------------| |-------------|---------------|----------------------------|---------------|----------|
|--------------| |-------------|---------------|----------------------------|-0-------------|-0--------|
|-0------------|X3 |-0-----------|-0-------------|-0--------------------------|---------------|----------|


|-0-0-0-|---------3h0-----|-0-0-|---------0h5p0---------|-----------<12>------| |-------0------| * Versión
|-5-5-5-|-----5-------5---|-5-7-|-----7---------7p0-0h5-|-------<12>-----0----| |-----0---0----| en Vivo
|-5-5-5-|---5---5-------5-|-5-7-|---7---7---------------|---<12>-----------0--| |---0-------0--|
|-------|-----------------|-----|-----------------------|---------------------| |--------------|* Live
|-0-2-3-|-3---------------|-3-5-|-5---------------------|---------------------| |--------------| Version
|-------|-----------------|-----|-----------------------|-0-------------------| |-0------------|X3

El exorcista
E --0-5-0-7-0-3-5-0-8-0-10-0-7-8-5-|-0-7-0-3-5-0-8-0-10-0-7-8-7----
B ---------------------------------|-------------------------------
G ---------------------------------|-------------------------------
D ---------------------------------|-------------------------------
A ---------------------------------|-------------------------------
E ---------------------------------|-------------------------------

Taño, luego existo.
MI GRAN CURRADA
http://www.guitarristas.info/foros/luthieria-textil-adaptacion-funda-guitarra-v/84563

Subir
#11 el 28/06/2013
Hola disculpa soy nueva aquí pero tengo un gran problema necesito aprender la se Scorpions no one like you toxicity de sistem of a down Blind-korn y walk pantera y no se como empezar ya que no tengo mucha experiencia con la guitarra y quería ver si me podías ayudar a buscar unas tablaturas fáciles para esta canción muchas gracias
Subir
#12 el 29/06/2013
tienes el guitar pro? es muy util

Taño, luego existo.
MI GRAN CURRADA
http://www.guitarristas.info/foros/luthieria-textil-adaptacion-funda-guitarra-v/84563

Subir
Respuesta rápida
Identíficate o regístrate para poder responder en este hilo.