Tablatura "lo llevo en la sangre" zenobia

#1 el 17/06/2011
Publicidad
Alguien puede ayudarme a sacar el solo de la canción "lo llevo en la sangre" de zenobia? La he buscado por todos lados y no la encuentro

Subir
#2 el 17/06/2011


Pentatónica Abm eólico.
|----------------------------------------------------------|------7--------7-------9-------7----|
|----------------------------------------------------------|-7-9---9-7-9--9-7-9--9-7-9--9-7|
|----------------4-6-6^4-------4-6b-6b-6b-6^4----|---------------------------------------|
|-----------4-6------------6~6----------------------6~|--------------------------------------|
|------4-6------------------------------------------------|--------------------------------------|
|/-4-7----------------------------------------------------|--------------------------------------|

..................................Diatónica Abm frigio.
|-------------------------|-11----14-11----11---------------------------------------------------|
|-H14b-14^12-14~~|---------------14----14-12-14-12-11-12-11----11----------------|
|-------------------------|----------------------------------------------------13---13-11-13~~|
|-------------------------|--------------------------------------------------------------------------|
|-------------------------|--------------------------------------------------------------------------|
|-------------------------|--------------------------------------------------------------------------|


|-----------14-12-11---11-12-------|-----------------------------------------|
|----12---------------14-------11~~|-----------12---------------------------|
|-11---11-----------------------------|-11b--11b---11b-11~~14-H14~~|
|---------------------------------------|-11b--11b---11b----------------------|
|---------------------------------------|------------------------------------------|
|---------------------------------------|------------------------------------------|

Abm eólico.
|------------------------------|-------------------------------|
|------------------------------|-------------------------------|
|------------------------------|-------------------------------|
|------------------------------|-------------------------------|
|-6-------4-----6------4-----|-6---------------6------4----|
|-4--7-4--7-4-4--7-4--7-4|-4--7-4-2-2-7-4--7-4--7-4|

Pentatónica Abm eólico.
|------------------------------------------------------------|-------------------------------------|
|--------------------------12-14^12---12---------------|-14b-14b-14b~~19b-19b-19b|
|-------------------11-13------------13---13-11-13~~|-------------------------------------|
|------------11-13-----------------------------------------|-------------------------------------|
|-/14~~14------------------------------------------------|-------------------------------------|
|------------------------------------------------------------|-------------------------------------|

:saludo:

Subir
#3 el 17/06/2011
Gracias tio!!! Me va a ser de gran ayuda

Subir
#4 el 30/06/2011
El solo está bien pero me podría alguien pasarme la canción entera?

Subir
#5 el 30/09/2011
si la teneis me podrias decir como es la cancion en tab o en guitar pro?gracias

Subir
#6 el 28/08/2012
Gente voy a comenzar a sacar a oído esta canción y creare un archivo de Guitar Pro, en cuanto este completo lo pasaré.
Subir
#7 el 09/08/2013
manolo-parra Como estas, tal ves si hiciste la tab de esta canción? Si alguien ya tiene la tab completa de la canción en cualquier formato por favor espero que lo puedan compartir!

Claudi Muy bueno el solo si tienes la canción completa espero me puedas ayudar con la tab!

Saludos
Subir
#8 el 14/08/2013
hardcore311 mandame un mensaje a big-manolo@hotmail.com y te la paso por ahí

O soy muy inútil (Lo más probable) o 911 tabs no quiere que suba la tab xD
Subir
#9 el 18/08/2013
manolo-parra escribió:
hardcore311 mandame un mensaje a big-manolo@hotmail.com y te la paso por ahí


Ya escribí a tu mail, espero tu respuesta, muchas gracias por responderme, Saludos
Subir
#10 el 17/09/2013
Hola hermanos, solo para decirles que soy transcriptor; por si necesitan tabs, partituras o videotutoriales precisos de los temas que gusten. Un saludo :)
Subir
Respuesta rápida
Identíficate o regístrate para poder responder en este hilo.