Sweep picking of darkness [video propio y tab]

#1 por alien513 el 21/05/2010
http://www.youtube.com/watch?v=GbperpzXzpo[/YOUTUBE] Bueno, después del [url=http://www.guitarristas.info/foro/f4/sweep-picking-3ra-cuerda-sucia-al-despegar-dedo-96122/]otro post[/url] pidiendo ayuda y ver que a algunos les gustó el temita ese raro draculense de mi creación (y una que otra frase sacada de algunos músicos) me pidieron la tab (también por mp) pues aquí con algo de esfuerzo tedioso transcribiendola se las dejo, por lo menos la primera sección de sweep picking que la verdad está bien fácil de aprender, ya después incorporo lo demás. Disculpen el acompañamiento tan simple de bateria, pero es lo que hay. :risa: [b] -7-3-------3-(x2)---8-5-------5-(x2)---11-8----------8-(x2)---12-7-------7 (x2)---- (x2) -----5---5--------------7---7---------------10----10---------------8---8----------- -------4------------------8--------------------11--------------------9------------- ----------------------------------------------------------------------------------- ----------------------------------------------------------------------------------- ----------------------------------------------------------------------------------- -12-8---------8-(x2)---13-10----------10-(x2)---16-13----------13-(x2)---17-12----------12-(x2)- ------10---10----------------12----12-----------------15----15-----------------13----13--------- ---------9----------------------13-----------------------16-----------------------14------------ ------------------------------------------------------------------------------------------------ ------------------------------------------------------------------------------------------------ ------------------------------------------------------------------------------------------------ -12-8---------8-(x2)---13-10----------10-(x2)---16-13----------13-(x2)--- ------10---10----------------12----12-----------------15----15----------- ---------9----------------------13-----------------------16-------------- ------------------------------------------------------------------------- ------------------------------------------------------------------------- ------------------------------------------------------------------------- -17-12----------12--13-10----------10--12-8---------8--10-7--------7- -------13----13-----------12----12----------10---10---------9----9--- ----------14-----------------13----------------9--------------10----- --------------------------------------------------------------------- --------------------------------------------------------------------- --------------------------------------------------------------------- -17-12----------12--13-10----------10--12-8---------8--10-7--------7- -------13----13-----------12----12----------10---10---------9----9--- ----------14-----------------13----------------9--------------10----- --------------------------------------------------------------------- --------------------------------------------------------------------- --------------------------------------------------------------------- -17-12----------12-13-10----------10----- (x2) -------13----13----------12----12-------- ----------14----------------13----------- ----------------------------------------- ----------------------------------------- ----------------------------------------- --17-12----------12-17-12----------12--17-12-17-- --------13----13----------13----13--------------- -----------14----------------12------------------ ------------------------------------------------- ------------------------------------------------- ------------------------------------------------- Intermedio -17-15-17-13-17-12-17----17----17-----17-12-17-13-17-15-17-13-17-12-17----------------- (x2) ----------------------15----14-----15----------------------------------15-------14-15-- --------------------------------------------------------------------------14-15-------- --------------------------------------------------------------------------------------- --------------------------------------------------------------------------------------- --------------------------------------------------------------------------------------- en proceso... Última sección de sweeps -12-8---------8-(x2)--13-10----------10-(x2)--10-7---------7-(x2)--12-8---------8-(x2)-- ------10---10---------------12----12---------------9----10--------------10---10--------- ---------9---------------------13--------------------10--------------------9------------ ---------------------------------------------------------------------------------------- ---------------------------------------------------------------------------------------- ---------------------------------------------------------------------------------------- -8-5-------5-(x2)--10-7--------7-(x2)--13-10----------10-16-13----------13-17-12---------12-17 -----6---6--------------9----9---------------12----12----------15----15----------13----13----- -------5------------------10--------------------13----------------16----------------14-------- ---------------------------------------------------------------------------------------------- ---------------------------------------------------------------------------------------------- ---------------------------------------------------------------------------------------------- -12-8---------8-(x2)--13-10----------10-(x2)--10-7---------7-(x2)--12-8---------8-(x2)-- ------10---10---------------12----12---------------9----10--------------10---10--------- ---------9---------------------13--------------------10--------------------9------------ ---------------------------------------------------------------------------------------- ---------------------------------------------------------------------------------------- ---------------------------------------------------------------------------------------- -8-5-------5-(x2)--10-7--------7-(x2)--13-10----------10-16-13----------13-17-12---------12-17 -----6---6--------------9----9---------------12----12----------15----15----------13----13----- -------5------------------10--------------------13----------------16----------------14-------- ---------------------------------------------------------------------------------------------- ---------------------------------------------------------------------------------------------- ---------------------------------------------------------------------------------------------- [/b] seguimos transcribiendo, puede servir como buen ejercicio de sweep picking a principiantes e intermedios como yo. Y bueno aquí algo de información personal que nunca está de más. Guitarra Squire con pastilla EMG en puente (no recuerdo cual) y las otras con la que venía la guitarra, mastil escalopeado con jumbo frets del más grueso, pedalera digitech rp80, ampli ninguno, directamente la salida de audifonos a un minicomponente que tengo por aquí, afinación medio tono abajo del normal (cómo se llama ?) :roll: Tiempo tocando la guitarra unos 2 o 3 años a modo bien intermitente, nunca me lo tomo tan en serio, de teoría no se nada, ni siquiera sé qué notas son cada cuerda, yo sólo las ubico por numero de 1 al 6 xD estoy grave lo sé pero como digo no me lo tomo muy enserio, espero no morir antes de querer tomarmelo más en serio y conocer más de esta bella afición.[YOUTUBE]http://www.youtube.com/watch?v=GbperpzXzpo[/YOUTUBE]

Bueno, después del otro post pidiendo ayuda y ver que a algunos les gustó el temita ese raro draculense de mi creación (y una que otra frase sacada de algunos músicos) me pidieron la tab (también por mp) pues aquí con algo de esfuerzo tedioso transcribiendola se las dejo, por lo menos la primera sección de sweep picking que la verdad está bien fácil de aprender, ya después incorporo lo demás.

Disculpen el acompañamiento tan simple de bateria, pero es lo que hay. :risa:



-7-3-------3-(x2)---8-5-------5-(x2)---11-8----------8-(x2)---12-7-------7 (x2)---- (x2)
-----5---5--------------7---7---------------10----10---------------8---8-----------
-------4------------------8--------------------11--------------------9-------------
-----------------------------------------------------------------------------------
-----------------------------------------------------------------------------------
-----------------------------------------------------------------------------------


-12-8---------8-(x2)---13-10----------10-(x2)---16-13----------13-(x2)---17-12----------12-(x2)-
------10---10----------------12----12-----------------15----15-----------------13----13---------
---------9----------------------13-----------------------16-----------------------14------------
------------------------------------------------------------------------------------------------
------------------------------------------------------------------------------------------------
------------------------------------------------------------------------------------------------

-12-8---------8-(x2)---13-10----------10-(x2)---16-13----------13-(x2)---
------10---10----------------12----12-----------------15----15-----------
---------9----------------------13-----------------------16--------------
-------------------------------------------------------------------------
-------------------------------------------------------------------------
-------------------------------------------------------------------------


-17-12----------12--13-10----------10--12-8---------8--10-7--------7-
-------13----13-----------12----12----------10---10---------9----9---
----------14-----------------13----------------9--------------10-----
---------------------------------------------------------------------
---------------------------------------------------------------------
---------------------------------------------------------------------

-17-12----------12--13-10----------10--12-8---------8--10-7--------7-
-------13----13-----------12----12----------10---10---------9----9---
----------14-----------------13----------------9--------------10-----
---------------------------------------------------------------------
---------------------------------------------------------------------
---------------------------------------------------------------------

-17-12----------12-13-10----------10----- (x2)
-------13----13----------12----12--------
----------14----------------13-----------
-----------------------------------------
-----------------------------------------
-----------------------------------------


--17-12----------12-17-12----------12--17-12-17--
--------13----13----------13----13---------------
-----------14----------------12------------------
-------------------------------------------------
-------------------------------------------------
-------------------------------------------------


Intermedio
-17-15-17-13-17-12-17----17----17-----17-12-17-13-17-15-17-13-17-12-17----------------- (x2)
----------------------15----14-----15----------------------------------15-------14-15--
--------------------------------------------------------------------------14-15--------
---------------------------------------------------------------------------------------
---------------------------------------------------------------------------------------
---------------------------------------------------------------------------------------
en proceso...



Última sección de sweeps

-12-8---------8-(x2)--13-10----------10-(x2)--10-7---------7-(x2)--12-8---------8-(x2)--
------10---10---------------12----12---------------9----10--------------10---10---------
---------9---------------------13--------------------10--------------------9------------
----------------------------------------------------------------------------------------
----------------------------------------------------------------------------------------
----------------------------------------------------------------------------------------

-8-5-------5-(x2)--10-7--------7-(x2)--13-10----------10-16-13----------13-17-12---------12-17
-----6---6--------------9----9---------------12----12----------15----15----------13----13-----
-------5------------------10--------------------13----------------16----------------14--------
----------------------------------------------------------------------------------------------
----------------------------------------------------------------------------------------------
----------------------------------------------------------------------------------------------

-12-8---------8-(x2)--13-10----------10-(x2)--10-7---------7-(x2)--12-8---------8-(x2)--
------10---10---------------12----12---------------9----10--------------10---10---------
---------9---------------------13--------------------10--------------------9------------
----------------------------------------------------------------------------------------
----------------------------------------------------------------------------------------
----------------------------------------------------------------------------------------

-8-5-------5-(x2)--10-7--------7-(x2)--13-10----------10-16-13----------13-17-12---------12-17
-----6---6--------------9----9---------------12----12----------15----15----------13----13-----
-------5------------------10--------------------13----------------16----------------14--------
----------------------------------------------------------------------------------------------
----------------------------------------------------------------------------------------------
----------------------------------------------------------------------------------------------



seguimos transcribiendo, puede servir como buen ejercicio de sweep picking a principiantes e intermedios como yo.


Y bueno aquí algo de información personal que nunca está de más.

Guitarra Squire con pastilla EMG en puente (no recuerdo cual) y las otras con la que venía la guitarra, mastil escalopeado con jumbo frets del más grueso, pedalera digitech rp80, ampli ninguno, directamente la salida de audifonos a un minicomponente que tengo por aquí, afinación medio tono abajo del normal (cómo se llama ?) :roll:

Tiempo tocando la guitarra unos 2 o 3 años a modo bien intermitente, nunca me lo tomo tan en serio, de teoría no se nada, ni siquiera sé qué notas son cada cuerda, yo sólo las ubico por numero de 1 al 6 xD estoy grave lo sé pero como digo no me lo tomo muy enserio, espero no morir antes de querer tomarmelo más en serio y conocer más de esta bella afición.
Subir
#2 por davr el 21/05/2010
Gracias por la tab, voy a ponerme a ello :ok:

"Jesus camina sobre las aguas, Chuck Norris camina sobre Jesus"

Subir
#3 por b_funk el 21/05/2010
joder, pues con el nivel de técnica que tienes no se a que esperas para aprender algo de teoria,tienes información tanto en este foro como en toda la red en general a patadas.
Es un paso importante que deberias dar, veras como se abre un mundo nuevo (mas que un mundo un universo)
Subir
#4 por alien513 el 21/05/2010
Aprovecho para mostraros unas fotos del escalopeado que yo mismo le hice al mástil.

350tch4.jpg

bv3w5.jpg

xkyhki.jpg

bgcksk.jpg

v62eec.jpg

fm8m9.jpg

o88590.jpg


El truco para que quede bien es usar rectangulitos de lija, una de aspero medio y otra del mas fino, con cuidado le vas lijando en medio del traste, después bien pegadito a los trastes "fierritos" (no se ocupan proteger con cinta si lo haces con cuidado) y por último un acabado general para darle la forma de U skate, no tan pronunciada, un profundo ligero. Y eso sí, tomarselo con toda la calma del mundo para que quede bien el trabajo. Un día haces unos pocos y cuando te agobies mejor ahí dejalo y continúas otro día que tengas la mente y la habilidad fresca para hacer un trabajo excelente.

No conviene usar herramientas de carpinteria como una lima, ya que éstas son muy bruscas y dejan la madera muy áspera. Convencí a unos amigos a que se animaran a hacerle a sus guitarras ya que les gustó como quedaba, ahora dicen que ya sentirían que le falta algo a una guitarra si le faltara el mástil escalopeado.
Subir
#5 por chapuzator el 22/05/2010
Joer tio que trabajazo en el escalopado, y gracias de nuevo por la tab

Escupe al alcalde, Escupe al ministro, Escupe al estupa que va en su ritmo."Cicatriz" 1985

Subir
#6 por Jaime J.Márquez el 22/05/2010
enhorabuena tanto por el escalopado como por el ejercicio propuesto.

VENDO , mira en mis anuncios!!! Se ajustan y reparan guitarras en Granada. Toda mi musica, videos, blog y mas cosas en http://jaimejmarquez.tk/ MEDEA http://medea-oficial.tk/ Hago mezclas y masterizaciones a distancia(privado si te interesa)

Subir
Respuesta rápida

Regístrate o para poder postear en este hilo