Que significa la x en las tablaturas?

#1 el 18/06/2009
Publicidad
SOLO NECESITO SABER QUE TENGO Q HACER CUANDO EN UNA TABLATURA UNA NOTA ESTA MARCADA CON UNA "X" LES AGRADECERIA MUCHO SI ME SACAN D ESTA DUDA:saludo:

lXxbrothers of metal see you in the hellxXl http://www.guitarristas.info/foro/gr...-del-foro.html los mexicanos que no esten en este grupo unanse porfavor

Subir
#2 el 18/06/2009
Te puede aparecer una x por arriba o debajo de una nota: esto significa que debes hacer palm mute. si te aparece una x sola sobre la cuerda: es una nota muerta.

Palm Mute se toca con el costado de la mano derecha apyada sobre las cuerdas cerca del puente.

Nota Muerta se toca apoyando la yema de los dedos de la mano izquierda sobre la cuerda indicada a cualquier altura.

Espero que te sea de utilidad esta info. Suerte !
Subir
#3 el 18/06/2009
Si te aparecen varias en una tablatura tienes que hacer el típico "chaca chaca" que es muteando las cuerdas de tu mano izda, en acordes significa que la cuerda no se toca y el círculo al aire. :saludo:


Epiphone Les Paul Standard Plus Translucent Amber
Digitech RP500

Subir
#4 el 13/01/2010
Perdon por revivir tema pero como lo hago aca?


Verse 1: (palm mute throughout)
-----------------------------------------------------------|
-----------------------------------------------------------|
-x-x---------------x-x---------------x-x---------------x-x-|
-7-7---------------4-4---------------x-x---------------2-2-|
-5-5---------------2-2---------------5-5---------------0-0-|
-x-x---------------x-x---------------5-5---------------x-x-|

-------------------------------------------|
-------------------------------------------|
-x-x----x---x-x----x---x-x----x---x-x----x-|
-7-7----7---7-7----7---4-4----4---4-4----4-|
-5-5----5---5-5----5---2-2----2---2-2----2-|
-x-x----x---x-x----x---x-x----x---x-x----x-|

Tambien pregunto otra cosa ... cual es la diferencia en un slide asi / y asi \ ?
Gracias (:
Subir
#5 el 13/01/2010
Fake Smile escribió:
Perdon por revivir tema pero como lo hago aca?


Verse 1: (palm mute throughout)
-----------------------------------------------------------|
-----------------------------------------------------------|
-x-x---------------x-x---------------x-x---------------x-x-|
-7-7---------------4-4---------------x-x---------------2-2-|
-5-5---------------2-2---------------5-5---------------0-0-|
-x-x---------------x-x---------------5-5---------------x-x-|

-------------------------------------------|
-------------------------------------------|
-x-x----x---x-x----x---x-x----x---x-x----x-|
-7-7----7---7-7----7---4-4----4---4-4----4-|
-5-5----5---5-5----5---2-2----2---2-2----2-|
-x-x----x---x-x----x---x-x----x---x-x----x-|

Tambien pregunto otra cosa ... cual es la diferencia en un slide asi / y asi \ ?
Gracias (:


Puedes oir la cancion... imagino que la tablatura esa esta mal y no muesta bien, a de ser que debes de rasgear y haser notas muertas (osea dando el acorde rasgeando y muteando las demas cuerdas)

El slide creo que / es asendente y \ desendente, recomendaria que usaras mas el oido..:roll:

Nunca me cae mal un +1 es enserio! xDD
Mi unico amigo es la guitarra

Subir
#6 el 13/01/2010
Fake Smile escribió:
Perdon por revivir tema pero como lo hago aca?


Verse 1: (palm mute throughout)
-----------------------------------------------------------|
-----------------------------------------------------------|
-x-x---------------x-x---------------x-x---------------x-x-|
-7-7---------------4-4---------------x-x---------------2-2-|
-5-5---------------2-2---------------5-5---------------0-0-|
-x-x---------------x-x---------------5-5---------------x-x-|

-------------------------------------------|
-------------------------------------------|
-x-x----x---x-x----x---x-x----x---x-x----x-|
-7-7----7---7-7----7---4-4----4---4-4----4-|
-5-5----5---5-5----5---2-2----2---2-2----2-|
-x-x----x---x-x----x---x-x----x---x-x----x-|

Tambien pregunto otra cosa ... cual es la diferencia en un slide asi / y asi \ ?
Gracias (:


En esos casos yo ocupo los dedos indice y anular (1 y 3) para tocar el acorde y sobrepongo el dedo medio (2) pa "tapar" la 6ª cuerda y las de abajo con el resto del dedo o con el meñique si fuera necesario. Creo que eso pasa en algunas canciones de SRV como Couldn't stand the weather y cold shot... ojala t haya ayudado :)
Subir
#7 el 13/01/2010
nxo_ escribió:
En esos casos yo ocupo los dedos indice y anular (1 y 3) para tocar el acorde y sobrepongo el dedo medio (2) pa "tapar" la 6ª cuerda y las de abajo con el resto del dedo o con el meñique si fuera necesario. Creo que eso pasa en algunas canciones de SRV como Couldn't stand the weather y cold shot... ojala t haya ayudado :)


Gracias y si esta asi

-------
-------
-------
--6----
--x----
--4----

?

Alguien me responde lo del slide?
Subir
#8 el 13/01/2010
pones el dedo medio en la cuerda que indica x como nota muerta y usas los dedos indice y anular paa tocar, creo no esoty seguro, / este es acedndente \y este decendente :| :saludo:
---------------------------------
no estoy seguro de el slide, lo de la tab si, asi lo hago yo:D
Subir
#9 el 13/01/2010
En cuanto a las primeras tablaturas que comentas:

-----------------------------------------------------------|
-----------------------------------------------------------|
-x-x---------------x-x---------------x-x---------------x-x-|
-7-7---------------4-4---------------x-x---------------2-2-|
-5-5---------------2-2---------------5-5---------------0-0-|
-x-x---------------x-x---------------5-5---------------x-x-|

Yo normalmente cuando me he encontrado ese tipo de tablaturas parece ser que lo usan para indicar que hay que hacer palm mute. No creo que sea muy correcto ponerlo así pero bueno, hay que tenerlo en cuenta porque me lo he encontrado ya varias veces.

Y en el segundo caso:

-------
-------
-------
--6----
--x----
--4----

Lo mismo, normalmente la X está un poco de relleno, o bien para indicar que has de tapar esa cuerda y solo tienen que sonar las otras 2.

www.youtube.com/rualmar

Sigma Cero:
www.sigmacero.com
Mail: management@sigmacero.com

Astral:
Descarga nuestro EP gratis en metalastral.bandcamp.com
Facebook/Youtube: metalastral
Twitter: @astralmetal
Mail: management.astral@gmail.com

Subir
#10 el 29/01/2010
Muchas gracias por las respuestas
pero aun tengo la duda si se interpone el dedo del medio en todas las cuerdas o solo se pone muy por encima de la cuerda a tapar...
Como en este caso

Les agradeceria mucho si lo ven (:
Subir
#11 el 30/01/2010
Fake Smile escribió:
Perdon por revivir tema pero como lo hago aca?


Verse 1: (palm mute throughout)
-----------------------------------------------------------|
-----------------------------------------------------------|
-x-x---------------x-x---------------x-x---------------x-x-|
-7-7---------------4-4---------------x-x---------------2-2-|
-5-5---------------2-2---------------5-5---------------0-0-|
-x-x---------------x-x---------------5-5---------------x-x-|

-------------------------------------------|
-------------------------------------------|
-x-x----x---x-x----x---x-x----x---x-x----x-|
-7-7----7---7-7----7---4-4----4---4-4----4-|
-5-5----5---5-5----5---2-2----2---2-2----2-|
-x-x----x---x-x----x---x-x----x---x-x----x-|

Tambien pregunto otra cosa ... cual es la diferencia en un slide asi / y asi \ ?
Gracias (:


Normalmente cuando aparecen las 'x', significa que la cuerda marcada con la 'x' no debe sonar, debes arreglártelas para que no suene, yo lo que hago es rozar la cuerda que quiero mutear con uno de los dedos con los que pulso, de manera que esa cuerda no suene. No sé si me explico bien, debe sonar como si rozaras la cuerda, pero sin llegar a sonar
Subir
#12 el 16/02/2010
yo creia que el palm mute era cuando arriba de la tab estaba escrito: PM..........................
y la X es nota muerta, bueno si creo que es asi
Subir

HILOS SIMILARES

Respuesta rápida
Identíficate o regístrate para poder responder en este hilo.