no puedo tocar esto(problema)

#1 por _nirvana el 24/07/2008
holas, no se si es este el lugar donde hubicar este hilo pero no importa. hay un riff que no me sale, es bastante rapido. lo toco pero no cordino. queria saber algun ejercicio nose. aca les muestro:

el tab es

------------------------------|------------------------------|
------------------------------|------------------------------|
------------------------------|------------------------------|
------------------------------|------------------------------|
------------7-5-7---------7-5-|--7---------7-5-7-------------|
--0--0-0-0---------0-0-0------|-----0-0-0---------0-0-7--0-0-|

------------------------------|-----------------------------|
------------------------------|-----------------------------|
------------------------------|-----------------------------|
------------------------------|-----------------------------|
------------7-5-7---------7-5-|--7---------7-5-7------6-----|
--6--0-0-0---------0-0-0------|-----0-0-0---------7-7----6--|


-------------------------------|------------------------------|
-------------------------------|------------------------------|
-------------------------------|------------------------------|
-------------------------------|------------------------------|
--5-0--------7-5-7---------7-5-|--7---------7-5-7-------------|
------0-0-0---------0-0-0------|-----0-0-0---------0-0-7--0-0-|


bueno la cancione se llama The Frayed Ends Of Sanity, bajenla o busquenla en youtube. el riff comienza en 04:10. de la cancion. saludos y gracias!

Salvemos el Rock .

Subir
#2 por rayn el 24/07/2008
uf, pues nose, prueba a acerlo en speed picking, pero no es muy complicado eh xd
Subir
#3 por cristianfox el 24/07/2008
:cool:practicalo mucho y veras que saldra:saludo:
Subir
#4 por krlos perdomo el 24/07/2008
practica lento ( no esta dificil)

La vida es aprender y aprender(y hecharse una buena jam )
Mi Myspace http://www.myspace.com/carlosalejandroperdomo

Subir
#5 por novatoelectro el 24/07/2008
Solo practica

Hay un momento en la vida en que la muerte nos sonríe, y no tenemos de otra que regresarle la sonrisa...

Subir
#6 por _nirvana el 24/07/2008
ok xD, voy a practicar...:D gracias

Salvemos el Rock .

Subir
#7 por guitarbdn el 24/07/2008
haz los ejercicios de alternate picking del diario de práctcas de Jm fernandez:D:ok:

el si que sabe de ejercicios, y que mas decir, practica tio practica, y lento..

ya veras como sale ;)

saludos:saludo:

Mi Myspace

http://www.myspace.com/joangomezmusic

Subir
#8 por KikeAOR el 24/07/2008
_nirvana escribió:
holas, no se si es este el lugar donde hubicar este hilo pero no importa. hay un riff que no me sale, es bastante rapido. lo toco pero no cordino. queria saber algun ejercicio nose. aca les muestro:

el tab es

------------------------------|------------------------------|
------------------------------|------------------------------|
------------------------------|------------------------------|
------------------------------|------------------------------|
------------7-5-7---------7-5-|--7---------7-5-7-------------|
--0--0-0-0---------0-0-0------|-----0-0-0---------0-0-7--0-0-|

------------------------------|-----------------------------|
------------------------------|-----------------------------|
------------------------------|-----------------------------|
------------------------------|-----------------------------|
------------7-5-7---------7-5-|--7---------7-5-7------6-----|
--6--0-0-0---------0-0-0------|-----0-0-0---------7-7----6--|


-------------------------------|------------------------------|
-------------------------------|------------------------------|
-------------------------------|------------------------------|
-------------------------------|------------------------------|
--5-0--------7-5-7---------7-5-|--7---------7-5-7-------------|
------0-0-0---------0-0-0------|-----0-0-0---------0-0-7--0-0-|


bueno la cancione se llama The Frayed Ends Of Sanity, bajenla o busquenla en youtube. el riff comienza en 04:10. de la cancion. saludos y gracias!


La verdad es que si esta es la actitud que se coge por costumbre.......

" Bueno, no se si esto va aqui, pero que mas da, ya vendra alguien y lo cambiara".......

Si quieres que te ayuden empieza predicando un poco con el ejemplo


En cuanto a tu duda pues te diria que practiques lo que te han dicho porque no tiene mas misterio. Veras como con el tiempo lo que parecia un mundo no es nada ;)

Saludos!
Subir
Respuesta rápida

Regístrate o para poder postear en este hilo