Que no daria yo, Rocio Jurado

#1 por osma el 06/05/2011
Alguien sabe los acordes de la cancion de Que no daria yo, de Rocio jurado. No puedo dejar de escucharla!! Que alguien me ayude jaja. Gracias de antemano
Subir
#2 por Pasando pantalla el 09/05/2011
Hola, osma.
Mira, no soy mucho de estos estilos, aunque la guitarra flamenca me encanta, pero he encontrado este vídeo que te puede ayudar mucho. Debes poner una cejilla en el primer traste y el tema está en FAm.

Suerte. :brindis:
:saludo:

http://www.guitarmonia.es/intervalos-musicales/intervalos-en-la-guitarra/
http://www.pianoaventura.com/documentos/curso_completo_de_teoria_de_la_musica.pdf
http://www.all-guitar-chords.com/guitar_scales.php
http://www.discoverguitaronline.com/

Subir
#3 por nadie_ats el 10/05/2011
Pones la cegilla en el traste 1 yu segun el video de mi amigo reinaldos que muy oportunamente a puesto Claudi. Los "adornos" en los acordes los puedes ver en el video.

Despues del principio y antes de cantar, mas o menos es asi.

.....................................| se repite varias veces antes de cantar, con algunas variaciones.
-|-0---------0---------0--------0----|----0-0-0--------0---
-|-1---------0---------0--------0----|----0-0-0--------0---
-|-2---------0---------2--------0----|----2-2-2--------0---
-|-2---------2---------1--------2----|----1-1-1--------2---
-|-0---------2---------2--------2----|----2-2-2--------2---
-|-0---------0---------2--------0----|----2-3-2-3-2-0--0---



Cuando comienza a cantar:


.....que no daria yo, por empezar de nuevo
-|---0----------------0-------------5----5----5--5------------
-|---0----------------0-------------5----5----5--5------------
-|---0----------------1-------------7----5----7--5------------
-|---2----------------2-------------6----5----6--5------------
-|---2----------------2-------------7----7----7--7------------
-|---0----------------0-------------7----5----7--5------------


.............a pasear por la arena de esa playa blanca
-|-----------2--------------0-------------3----------3----3--3
-|-----------1--------------1-------------3----------3----3--3
-|-----------2--------------2-------------5----------4----5--4
-|--4-2-1----0--------------0-------------4----------5----4--5
-|-----------0--------------3-------------5----------5----5--5
-|-----------0--------------2-------------5----------3----5--3


....Que no daría yo, por escuchar de nuevo / esa niña que llega tarde a casa.
-|--0---------------0--------0-0-0--------0----0------------------------0-----
-|--0---------------0--------0-0-0--------1----1------------------------2----
-|--1---------------1--------1-1-1--------0----0------------------------4-----
-|--0---------------0--------3-2-0--------2----2------------------------5-----
-|--2---------------2--------2-2-2--3-2-0-0----3------------------------4---
-|--0---------------4--------0-0-0--------0----3------------------------0----




...Y escuchar ese grito de mi madre / pregonando mi nombre en la ventana

-|--0---0-----------------5--------5----------------0----------------0--
-|--0---0-----------------5--------5----------------0----------------0--
-|--0---1-----------------7--------5----------------2----------------0--
-|--2---0-----------------6--------5----------------1----------------2--
-|--2---2-----------------7--------7----------------2----------------2--
-|--0---4-----------------7--------5----------------2----------------0--


mientras yo deshojaba primaveras / por la calle mayor y por la plaza.
-|------------------------------------0------------------------0--
-|------------------------------------0------------------------0--
-|------------------------------------2------------------------0--
-|------------------------------------1------------------------2--
-|------------------------------------2------------------------2--
-|------------------------------------2------------------------0--




Mas o menos es asi, por lo menos yo la toco asoi (con los adornos) y la aprendi de ese mismo video. LA verdad es que es una cancion que se disfruta tocandola.


REINALDOS POWER !!!!!!

Subir
Respuesta rápida

Regístrate o para poder postear en este hilo