Hola soy nuevo y tengo una pequena cunfucion en cuanto a las tablaturas

#1 por dominic santiago el 17/01/2010
Eso de que la primera cuerda se la ultima de abajo y la sexta la primera de arriva es medio confuso por ejemplo aqui

|----------------------------------|----------------------------------| Esta en la guitarra es la cuerda de arriba o abajo?
|----------------------------------|----------------------------------|
|-------0-------0-------0-------0--|-------0-------0-------0-------0--|
|-----------2---------------2------|-----------3---------------3------|
|---3---------------3--------------|---3---------------3--------------|
|----------------------------------|----------------------------------| igual aqui ???


O en las tablaturas la cuerda de arriva SI es la de arriva o tambien estan invertidas por ejemplo si sale un 0 en la primera linea de la tablatura se refiera a la sexta o a la primera cuerda ???
Subir
#2 por kthulu el 17/01/2010
Dominic Santiago escribió:
Eso de que la primera cuerda se la ultima de abajo y la sexta la primera de arriva es medio confuso por ejemplo aqui

|----------------------------------|----------------------------------| Esta en la guitarra es la cuerda de arriba o abajo?
|----------------------------------|----------------------------------|
|-------0-------0-------0-------0--|-------0-------0-------0-------0--|
|-----------2---------------2------|-----------3---------------3------|
|---3---------------3--------------|---3---------------3--------------|
|----------------------------------|----------------------------------| igual aqui ???


O en las tablaturas la cuerda de arriva SI es la de arriva o tambien estan invertidas por ejemplo si sale un 0 en la primera linea de la tablatura se refiera a la sexta o a la primera cuerda ???


donde tu estas preguntando " Esta en la guitarra es la cuerda de arriba o abajo?" es la primera cuerda de la guitarra, o como te refieres la de abajo, es la mas delgada de las cuerdas

y en " igual aqui ???" es la ultima sexta cuerda y es la del calibre mayor

por otra parte el 0 quiere decir cuerda al aire en la cuerda que este referenciada, si aparece en la tercera de arriba para abajo, quiere decir que debes tocar la tercera cuerda al aire que es sol (g)

mucha suerte y que te sirva

Kthulu

Subir
#3 por dominic santiago el 17/01/2010
Graciaaaaaaaaas, con que por eso me sonaban raro las canciones ahora lo entiendo las tablaturas se leen de abajo a arriva.

Se que tal vez hay una razon para que sea asi y no me doy cuenta por que soy un fukin principiante pero no seria mas sencillo que la primera sea la de arriva y en ese orden en vez de todo invertido
Subir
Respuesta rápida

Regístrate o para poder postear en este hilo