Escala para tocar metal-core. ¿cual?

#1 por juaneskate el 10/09/2010
Por favor no se que escala usar para tocar metal-core quiero que me digan cuales son las mas indicadas. (toco en droop d)

gracias:D
Subir
#2 por Andy D el 10/09/2010
e------------------------------0-1-3- D-Minor
b--------------------------1-3-------
g--------------------0-2-3-----------
d--------------0-2-3-----------------
a-------0-1-3------------------------
D-0-2-3------------------------------

e------------------------------0-2-3- D-Harmonic Minor
b--------------------------1-3-------
g--------------------0-2-3-----------
d--------------0-2-3-----------------
a-------0-1-4------------------------
D-0-2-3------------------------------

esto quisas te sirva revisate esa pagina hay unas cuantas lecciones de metlcore y otros estilos, chequeala.
Good Metalcore Lesson | Lessons @ Ultimate-Guitar.Com

Ayudame a cumplir mi sueño VOTANDO aquí
https://www.movistarrealchallenge.com/ec/fichas/705
Gracias !

Subir
#3 por rodolfoestrada el 14/01/2011
en esta pagina soi nuevo i me encanto keria saber ke si me pueden ayudar para sacar riff de metalcore
Subir
#4 por lemur el 14/01/2011
El modo frigio (tambien llamado escala gitana)
Subir
#5 por dios_wylde el 15/01/2011
la escala gitana es la frigia dominante en la que el tercer grado es mayor... el que se utiliza normalmente es el tercer grado de la escala mayor (el frigio con la tercera menor)

el frigio dominante suena más árabe y no encaja mucho para metalcore... (aunque esa es mi opinión)

"Solo aquellos que se arriesgan a ir más lejos, saben lo lejos que se puede llegar"

Subir
Respuesta rápida

Regístrate o para poder postear en este hilo